  0
SECTION
  2
HEADER
  9
$ACADVER
  1
AC1009
  9
$EXTMIN
 10
0.0
 20
0.0
 30
0.0
  9
$EXTMAX
 10
1000.0
 20
1000.0
 30
0.0
  9
$FILLMODE
 70
 0
  9
$SPLFRAME
 70
 1
  0
ENDSEC
  0
SECTION
  2
TABLES
  0
TABLE
  2
LAYER
 70
1
  0
LAYER
  2
0
 70
     0
 62
     7
  6
CONTINUOUS
  0
ENDTAB
  0
ENDSEC
  0
SECTION
  2
ENTITIES
  0
POLYLINE
  8
0
 62
     7
 66
     1
 10
0
 20
0
 30
0.0
 70
     1
 40
0
 41
0
  0
VERTEX
  8
0
 10
0
 20
8.63835
 30
0.0
 40
0
 41
0
  0
VERTEX
  8
0
 10
8.26774
 20
8.63835
 30
0.0
 40
0
 41
0
  0
VERTEX
  8
0
 10
8.26774
 20
3.05761
 30
0.0
 40
0
 41
0
  0
VERTEX
  8
0
 10
0
 20
3.05761
 30
0.0
 40
0
 41
0
  0
VERTEX
  8
0
 10
0
 20
8.63835
 30
0.0
 40
0
 41
0
  0
SEQEND
 8
0
  0
POLYLINE
  8
0
 62
     0
 66
     1
 10
0
 20
0
 30
0.0
 40
0
 41
0
  0
VERTEX
  8
0
 10
1.55018
 20
7.50151
 30
0.0
 40
0
 41
0
  0
VERTEX
  8
0
 10
1.52615
 20
7.65901
 30
0.0
 40
0
 41
0
  0
VERTEX
  8
0
 10
1.46826
 20
7.7889
 30
0.0
 40
0
 41
0
  0
VERTEX
  8
0
 10
1.37386
 20
7.89572
 30
0.0
 40
0
 41
0
  0
VERTEX
  8
0
 10
1.24018
 20
7.98383
 30
0.0
 40
0
 41
0
  0
VERTEX
  8
0
 10
1.26362
 20
7.87414
 30
0.0
 40
0
 41
0
  0
VERTEX
  8
0
 10
1.28196
 20
7.77962
 30
0.0
 40
0
 41
0
  0
VERTEX
  8
0
 10
1.29384
 20
7.69547
 30
0.0
 40
0
 41
0
  0
VERTEX
  8
0
 10
1.2978
 20
7.61686
 30
0.0
 40
0
 41
0
  0
VERTEX
  8
0
 10
1.29237
 20
7.5389
 30
0.0
 40
0
 41
0
  0
VERTEX
  8
0
 10
1.27615
 20
7.45676
 30
0.0
 40
0
 41
0
  0
VERTEX
  8
0
 10
1.24772
 20
7.3655
 30
0.0
 40
0
 41
0
  0
VERTEX
  8
0
 10
1.20573
 20
7.26036
 30
0.0
 40
0
 41
0
  0
VERTEX
  8
0
 10
1.11372
 20
7.39165
 30
0.0
 40
0
 41
0
  0
VERTEX
  8
0
 10
1.01644
 20
7.51764
 30
0.0
 40
0
 41
0
  0
VERTEX
  8
0
 10
0.937825
 20
7.57818
 30
0.0
 40
0
 41
0
  0
VERTEX
  8
0
 10
0.860135
 20
7.60357
 30
0.0
 40
0
 41
0
  0
VERTEX
  8
0
 10
0.785156
 20
7.59885
 30
0.0
 40
0
 41
0
  0
VERTEX
  8
0
 10
0.714735
 20
7.56885
 30
0.0
 40
0
 41
0
  0
VERTEX
  8
0
 10
0.650553
 20
7.51856
 30
0.0
 40
0
 41
0
  0
VERTEX
  8
0
 10
0.59451
 20
7.45281
 30
0.0
 40
0
 41
0
  0
VERTEX
  8
0
 10
0.548394
 20
7.37663
 30
0.0
 40
0
 41
0
  0
VERTEX
  8
0
 10
0.513943
 20
7.29482
 30
0.0
 40
0
 41
0
  0
VERTEX
  8
0
 10
0.475206
 20
7.12235
 30
0.0
 40
0
 41
0
  0
VERTEX
  8
0
 10
0.470975
 20
6.95449
 30
0.0
 40
0
 41
0
  0
VERTEX
  8
0
 10
0.491699
 20
6.79021
 30
0.0
 40
0
 41
0
  0
VERTEX
  8
0
 10
0.527669
 20
6.62847
 30
0.0
 40
0
 41
0
  0
VERTEX
  8
0
 10
0.569336
 20
6.46826
 30
0.0
 40
0
 41
0
  0
VERTEX
  8
0
 10
0.607096
 20
6.30843
 30
0.0
 40
0
 41
0
  0
VERTEX
  8
0
 10
0.631293
 20
6.14794
 30
0.0
 40
0
 41
0
  0
VERTEX
  8
0
 10
0.632378
 20
5.98579
 30
0.0
 40
0
 41
0
  0
VERTEX
  8
0
 10
0.602539
 20
5.8884
 30
0.0
 40
0
 41
0
  0
VERTEX
  8
0
 10
0.540582
 20
5.80583
 30
0.0
 40
0
 41
0
  0
VERTEX
  8
0
 10
0.461154
 20
5.73574
 30
0.0
 40
0
 41
0
  0
VERTEX
  8
0
 10
0.378961
 20
5.67572
 30
0.0
 40
0
 41
0
  0
VERTEX
  8
0
 10
0.51671
 20
5.36572
 30
0.0
 40
0
 41
0
  0
VERTEX
  8
0
 10
0.723415
 20
5.43463
 30
0.0
 40
0
 41
0
  0
VERTEX
  8
0
 10
0.654514
 20
4.91786
 30
0.0
 40
0
 41
0
  0
VERTEX
  8
0
 10
0.964572
 20
4.98676
 30
0.0
 40
0
 41
0
  0
VERTEX
  8
0
 10
1.03348
 20
4.78006
 30
0.0
 40
0
 41
0
  0
VERTEX
  8
0
 10
0.916342
 20
4.7136
 30
0.0
 40
0
 41
0
  0
VERTEX
  8
0
 10
0.829372
 20
4.6314
 30
0.0
 40
0
 41
0
  0
VERTEX
  8
0
 10
0.766872
 20
4.52881
 30
0.0
 40
0
 41
0
  0
VERTEX
  8
0
 10
0.723415
 20
4.40115
 30
0.0
 40
0
 41
0
  0
VERTEX
  8
0
 10
0.688965
 20
4.40115
 30
0.0
 40
0
 41
0
  0
VERTEX
  8
0
 10
0.647081
 20
4.45269
 30
0.0
 40
0
 41
0
  0
VERTEX
  8
0
 10
0.595486
 20
4.4899
 30
0.0
 40
0
 41
0
  0
VERTEX
  8
0
 10
0.537326
 20
4.51243
 30
0.0
 40
0
 41
0
  0
VERTEX
  8
0
 10
0.475857
 20
4.51992
 30
0.0
 40
0
 41
0
  0
VERTEX
  8
0
 10
0.414225
 20
4.5121
 30
0.0
 40
0
 41
0
  0
VERTEX
  8
0
 10
0.355686
 20
4.48861
 30
0.0
 40
0
 41
0
  0
VERTEX
  8
0
 10
0.303494
 20
4.44917
 30
0.0
 40
0
 41
0
  0
VERTEX
  8
0
 10
0.26085
 20
4.39339
 30
0.0
 40
0
 41
0
  0
VERTEX
  8
0
 10
0.212131
 20
4.25206
 30
0.0
 40
0
 41
0
  0
VERTEX
  8
0
 10
0.210394
 20
4.09739
 30
0.0
 40
0
 41
0
  0
VERTEX
  8
0
 10
0.249729
 20
3.947
 30
0.0
 40
0
 41
0
  0
VERTEX
  8
0
 10
0.32449
 20
3.81863
 30
0.0
 40
0
 41
0
  0
VERTEX
  8
0
 10
0.434244
 20
3.70628
 30
0.0
 40
0
 41
0
  0
VERTEX
  8
0
 10
0.541883
 20
3.63829
 30
0.0
 40
0
 41
0
  0
VERTEX
  8
0
 10
0.649089
 20
3.6065
 30
0.0
 40
0
 41
0
  0
VERTEX
  8
0
 10
0.757596
 20
3.60249
 30
0.0
 40
0
 41
0
  0
VERTEX
  8
0
 10
0.869194
 20
3.618
 30
0.0
 40
0
 41
0
  0
VERTEX
  8
0
 10
0.985622
 20
3.64475
 30
0.0
 40
0
 41
0
  0
VERTEX
  8
0
 10
1.10872
 20
3.67447
 30
0.0
 40
0
 41
0
  0
VERTEX
  8
0
 10
1.24018
 20
3.69878
 30
0.0
 40
0
 41
0
  0
VERTEX
  8
0
 10
1.40001
 20
3.70074
 30
0.0
 40
0
 41
0
  0
VERTEX
  8
0
 10
1.56429
 20
3.6779
 30
0.0
 40
0
 41
0
  0
VERTEX
  8
0
 10
1.73008
 20
3.65235
 30
0.0
 40
0
 41
0
  0
VERTEX
  8
0
 10
1.89469
 20
3.64638
 30
0.0
 40
0
 41
0
  0
VERTEX
  8
0
 10
2.02632
 20
3.669
 30
0.0
 40
0
 41
0
  0
VERTEX
  8
0
 10
2.16493
 20
3.70578
 30
0.0
 40
0
 41
0
  0
VERTEX
  8
0
 10
2.30251
 20
3.736
 30
0.0
 40
0
 41
0
  0
VERTEX
  8
0
 10
2.43126
 20
3.73899
 30
0.0
 40
0
 41
0
  0
VERTEX
  8
0
 10
2.59056
 20
3.68272
 30
0.0
 40
0
 41
0
  0
VERTEX
  8
0
 10
2.75603
 20
3.58003
 30
0.0
 40
0
 41
0
  0
VERTEX
  8
0
 10
2.91775
 20
3.46425
 30
0.0
 40
0
 41
0
  0
VERTEX
  8
0
 10
3.06592
 20
3.36865
 30
0.0
 40
0
 41
0
  0
VERTEX
  8
0
 10
3.28814
 20
3.27468
 30
0.0
 40
0
 41
0
  0
VERTEX
  8
0
 10
3.53478
 20
3.21132
 30
0.0
 40
0
 41
0
  0
VERTEX
  8
0
 10
3.78808
 20
3.17692
 30
0.0
 40
0
 41
0
  0
VERTEX
  8
0
 10
4.03049
 20
3.16992
 30
0.0
 40
0
 41
0
  0
VERTEX
  8
0
 10
4.31569
 20
3.18685
 30
0.0
 40
0
 41
0
  0
VERTEX
  8
0
 10
4.61529
 20
3.22808
 30
0.0
 40
0
 41
0
  0
VERTEX
  8
0
 10
4.90668
 20
3.30126
 30
0.0
 40
0
 41
0
  0
VERTEX
  8
0
 10
5.16732
 20
3.41379
 30
0.0
 40
0
 41
0
  0
VERTEX
  8
0
 10
5.31586
 20
3.51687
 30
0.0
 40
0
 41
0
  0
VERTEX
  8
0
 10
5.46647
 20
3.63986
 30
0.0
 40
0
 41
0
  0
VERTEX
  8
0
 10
5.61963
 20
3.75499
 30
0.0
 40
0
 41
0
  0
VERTEX
  8
0
 10
5.77588
 20
3.83425
 30
0.0
 40
0
 41
0
  0
VERTEX
  8
0
 10
5.86936
 20
3.84082
 30
0.0
 40
0
 41
0
  0
VERTEX
  8
0
 10
5.97086
 20
3.81651
 30
0.0
 40
0
 41
0
  0
VERTEX
  8
0
 10
6.07249
 20
3.78179
 30
0.0
 40
0
 41
0
  0
VERTEX
  8
0
 10
6.16635
 20
3.757
 30
0.0
 40
0
 41
0
  0
VERTEX
  8
0
 10
6.33539
 20
3.73475
 30
0.0
 40
0
 41
0
  0
VERTEX
  8
0
 10
6.50038
 20
3.715
 30
0.0
 40
0
 41
0
  0
VERTEX
  8
0
 10
6.66075
 20
3.69217
 30
0.0
 40
0
 41
0
  0
VERTEX
  8
0
 10
6.81592
 20
3.66058
 30
0.0
 40
0
 41
0
  0
VERTEX
  8
0
 10
6.96517
 20
3.61458
 30
0.0
 40
0
 41
0
  0
VERTEX
  8
0
 10
7.10801
 20
3.54844
 30
0.0
 40
0
 41
0
  0
VERTEX
  8
0
 10
7.24388
 20
3.45654
 30
0.0
 40
0
 41
0
  0
VERTEX
  8
0
 10
7.37207
 20
3.33322
 30
0.0
 40
0
 41
0
  0
VERTEX
  8
0
 10
7.43192
 20
3.39322
 30
0.0
 40
0
 41
0
  0
VERTEX
  8
0
 10
7.46903
 20
3.45307
 30
0.0
 40
0
 41
0
  0
VERTEX
  8
0
 10
7.48687
 20
3.51346
 30
0.0
 40
0
 41
0
  0
VERTEX
  8
0
 10
7.48882
 20
3.57519
 30
0.0
 40
0
 41
0
  0
VERTEX
  8
0
 10
7.47835
 20
3.639
 30
0.0
 40
0
 41
0
  0
VERTEX
  8
0
 10
7.45888
 20
3.70557
 30
0.0
 40
0
 41
0
  0
VERTEX
  8
0
 10
7.43375
 20
3.77567
 30
0.0
 40
0
 41
0
  0
VERTEX
  8
0
 10
7.40653
 20
3.84993
 30
0.0
 40
0
 41
0
  0
VERTEX
  8
0
 10
7.54833
 20
3.88531
 30
0.0
 40
0
 41
0
  0
VERTEX
  8
0
 10
7.67171
 20
3.94358
 30
0.0
 40
0
 41
0
  0
VERTEX
  8
0
 10
7.77647
 20
4.02132
 30
0.0
 40
0
 41
0
  0
VERTEX
  8
0
 10
7.86247
 20
4.11496
 30
0.0
 40
0
 41
0
  0
VERTEX
  8
0
 10
7.92953
 20
4.22114
 30
0.0
 40
0
 41
0
  0
VERTEX
  8
0
 10
7.97754
 20
4.33626
 30
0.0
 40
0
 41
0
  0
VERTEX
  8
0
 10
8.00624
 20
4.45692
 30
0.0
 40
0
 41
0
  0
VERTEX
  8
0
 10
8.01551
 20
4.57958
 30
0.0
 40
0
 41
0
  0
VERTEX
  8
0
 10
8.00526
 20
4.70085
 30
0.0
 40
0
 41
0
  0
VERTEX
  8
0
 10
7.97526
 20
4.81711
 30
0.0
 40
0
 41
0
  0
VERTEX
  8
0
 10
7.92535
 20
4.92497
 30
0.0
 40
0
 41
0
  0
VERTEX
  8
0
 10
7.85542
 20
5.02094
 30
0.0
 40
0
 41
0
  0
VERTEX
  8
0
 10
7.76531
 20
5.10156
 30
0.0
 40
0
 41
0
  0
VERTEX
  8
0
 10
7.65479
 20
5.16331
 30
0.0
 40
0
 41
0
  0
VERTEX
  8
0
 10
7.52376
 20
5.20269
 30
0.0
 40
0
 41
0
  0
VERTEX
  8
0
 10
7.37207
 20
5.21619
 30
0.0
 40
0
 41
0
  0
VERTEX
  8
0
 10
7.26303
 20
5.20865
 30
0.0
 40
0
 41
0
  0
VERTEX
  8
0
 10
7.16704
 20
5.18772
 30
0.0
 40
0
 41
0
  0
VERTEX
  8
0
 10
7.08246
 20
5.15489
 30
0.0
 40
0
 41
0
  0
VERTEX
  8
0
 10
7.00765
 20
5.11165
 30
0.0
 40
0
 41
0
  0
VERTEX
  8
0
 10
6.94092
 20
5.05957
 30
0.0
 40
0
 41
0
  0
VERTEX
  8
0
 10
6.88064
 20
5.00017
 30
0.0
 40
0
 41
0
  0
VERTEX
  8
0
 10
6.82514
 20
4.93489
 30
0.0
 40
0
 41
0
  0
VERTEX
  8
0
 10
6.77285
 20
4.86524
 30
0.0
 40
0
 41
0
  0
VERTEX
  8
0
 10
6.722
 20
4.79275
 30
0.0
 40
0
 41
0
  0
VERTEX
  8
0
 10
6.671
 20
4.71892
 30
0.0
 40
0
 41
0
  0
VERTEX
  8
0
 10
6.61822
 20
4.64529
 30
0.0
 40
0
 41
0
  0
VERTEX
  8
0
 10
6.56201
 20
4.57329
 30
0.0
 40
0
 41
0
  0
VERTEX
  8
0
 10
6.50071
 20
4.5045
 30
0.0
 40
0
 41
0
  0
VERTEX
  8
0
 10
6.43261
 20
4.44043
 30
0.0
 40
0
 41
0
  0
VERTEX
  8
0
 10
6.35618
 20
4.38249
 30
0.0
 40
0
 41
0
  0
VERTEX
  8
0
 10
6.26969
 20
4.33225
 30
0.0
 40
0
 41
0
  0
VERTEX
  8
0
 10
6.26969
 20
4.26335
 30
0.0
 40
0
 41
0
  0
VERTEX
  8
0
 10
6.37799
 20
4.23133
 30
0.0
 40
0
 41
0
  0
VERTEX
  8
0
 10
6.47586
 20
4.21847
 30
0.0
 40
0
 41
0
  0
VERTEX
  8
0
 10
6.56651
 20
4.22108
 30
0.0
 40
0
 41
0
  0
VERTEX
  8
0
 10
6.65338
 20
4.23535
 30
0.0
 40
0
 41
0
  0
VERTEX
  8
0
 10
6.73958
 20
4.25749
 30
0.0
 40
0
 41
0
  0
VERTEX
  8
0
 10
6.8285
 20
4.28369
 30
0.0
 40
0
 41
0
  0
VERTEX
  8
0
 10
6.92339
 20
4.31022
 30
0.0
 40
0
 41
0
  0
VERTEX
  8
0
 10
7.02756
 20
4.33328
 30
0.0
 40
0
 41
0
  0
VERTEX
  8
0
 10
7.1129
 20
4.33643
 30
0.0
 40
0
 41
0
  0
VERTEX
  8
0
 10
7.20942
 20
4.33301
 30
0.0
 40
0
 41
0
  0
VERTEX
  8
0
 10
7.30051
 20
4.34451
 30
0.0
 40
0
 41
0
  0
VERTEX
  8
0
 10
7.36962
 20
4.39225
 30
0.0
 40
0
 41
0
  0
VERTEX
  8
0
 10
7.39128
 20
4.47472
 30
0.0
 40
0
 41
0
  0
VERTEX
  8
0
 10
7.37858
 20
4.58029
 30
0.0
 40
0
 41
0
  0
VERTEX
  8
0
 10
7.3534
 20
4.68886
 30
0.0
 40
0
 41
0
  0
VERTEX
  8
0
 10
7.33763
 20
4.78006
 30
0.0
 40
0
 41
0
  0
VERTEX
  8
0
 10
7.42731
 20
4.78304
 30
0.0
 40
0
 41
0
  0
VERTEX
  8
0
 10
7.49968
 20
4.77431
 30
0.0
 40
0
 41
0
  0
VERTEX
  8
0
 10
7.55578
 20
4.75521
 30
0.0
 40
0
 41
0
  0
VERTEX
  8
0
 10
7.59668
 20
4.72706
 30
0.0
 40
0
 41
0
  0
VERTEX
  8
0
 10
7.62354
 20
4.69125
 30
0.0
 40
0
 41
0
  0
VERTEX
  8
0
 10
7.63737
 20
4.64914
 30
0.0
 40
0
 41
0
  0
VERTEX
  8
0
 10
7.63926
 20
4.60211
 30
0.0
 40
0
 41
0
  0
VERTEX
  8
0
 10
7.63038
 20
4.55143
 30
0.0
 40
0
 41
0
  0
VERTEX
  8
0
 10
7.61176
 20
4.49849
 30
0.0
 40
0
 41
0
  0
VERTEX
  8
0
 10
7.58447
 20
4.44467
 30
0.0
 40
0
 41
0
  0
VERTEX
  8
0
 10
7.54958
 20
4.39128
 30
0.0
 40
0
 41
0
  0
VERTEX
  8
0
 10
7.50831
 20
4.33968
 30
0.0
 40
0
 41
0
  0
VERTEX
  8
0
 10
7.46158
 20
4.29124
 30
0.0
 40
0
 41
0
  0
VERTEX
  8
0
 10
7.41058
 20
4.24735
 30
0.0
 40
0
 41
0
  0
VERTEX
  8
0
 10
7.35639
 20
4.20925
 30
0.0
 40
0
 41
0
  0
VERTEX
  8
0
 10
7.30007
 20
4.17833
 30
0.0
 40
0
 41
0
  0
VERTEX
  8
0
 10
7.13889
 20
4.11583
 30
0.0
 40
0
 41
0
  0
VERTEX
  8
0
 10
6.97999
 20
4.07856
 30
0.0
 40
0
 41
0
  0
VERTEX
  8
0
 10
6.82249
 20
4.06244
 30
0.0
 40
0
 41
0
  0
VERTEX
  8
0
 10
6.66569
 20
4.06358
 30
0.0
 40
0
 41
0
  0
VERTEX
  8
0
 10
6.50868
 20
4.0779
 30
0.0
 40
0
 41
0
  0
VERTEX
  8
0
 10
6.35069
 20
4.10146
 30
0.0
 40
0
 41
0
  0
VERTEX
  8
0
 10
6.19092
 20
4.13015
 30
0.0
 40
0
 41
0
  0
VERTEX
  8
0
 10
6.02854
 20
4.16
 30
0.0
 40
0
 41
0
  0
VERTEX
  8
0
 10
6.08724
 20
4.30165
 30
0.0
 40
0
 41
0
  0
VERTEX
  8
0
 10
6.16015
 20
4.43782
 30
0.0
 40
0
 41
0
  0
VERTEX
  8
0
 10
6.23986
 20
4.57135
 30
0.0
 40
0
 41
0
  0
VERTEX
  8
0
 10
6.31868
 20
4.70503
 30
0.0
 40
0
 41
0
  0
VERTEX
  8
0
 10
6.38932
 20
4.84158
 30
0.0
 40
0
 41
0
  0
VERTEX
  8
0
 10
6.44412
 20
4.98389
 30
0.0
 40
0
 41
0
  0
VERTEX
  8
0
 10
6.47564
 20
5.13471
 30
0.0
 40
0
 41
0
  0
VERTEX
  8
0
 10
6.4764
 20
5.29682
 30
0.0
 40
0
 41
0
  0
VERTEX
  8
0
 10
6.60211
 20
5.30946
 30
0.0
 40
0
 41
0
  0
VERTEX
  8
0
 10
6.74246
 20
5.32064
 30
0.0
 40
0
 41
0
  0
VERTEX
  8
0
 10
6.88992
 20
5.3355
 30
0.0
 40
0
 41
0
  0
VERTEX
  8
0
 10
7.03717
 20
5.3591
 30
0.0
 40
0
 41
0
  0
VERTEX
  8
0
 10
7.17676
 20
5.39643
 30
0.0
 40
0
 41
0
  0
VERTEX
  8
0
 10
7.30126
 20
5.45253
 30
0.0
 40
0
 41
0
  0
VERTEX
  8
0
 10
7.40326
 20
5.53244
 30
0.0
 40
0
 41
0
  0
VERTEX
  8
0
 10
7.47537
 20
5.64128
 30
0.0
 40
0
 41
0
  0
VERTEX
  8
0
 10
7.09646
 20
5.60682
 30
0.0
 40
0
 41
0
  0
VERTEX
  8
0
 10
7.00581
 20
5.49886
 30
0.0
 40
0
 41
0
  0
VERTEX
  8
0
 10
6.8851
 20
5.43332
 30
0.0
 40
0
 41
0
  0
VERTEX
  8
0
 10
6.74257
 20
5.40201
 30
0.0
 40
0
 41
0
  0
VERTEX
  8
0
 10
6.58658
 20
5.39665
 30
0.0
 40
0
 41
0
  0
VERTEX
  8
0
 10
6.4254
 20
5.4089
 30
0.0
 40
0
 41
0
  0
VERTEX
  8
0
 10
6.26736
 20
5.43061
 30
0.0
 40
0
 41
0
  0
VERTEX
  8
0
 10
6.12082
 20
5.45344
 30
0.0
 40
0
 41
0
  0
VERTEX
  8
0
 10
5.99408
 20
5.46907
 30
0.0
 40
0
 41
0
  0
VERTEX
  8
0
 10
6.06299
 20
5.71018
 30
0.0
 40
0
 41
0
  0
VERTEX
  8
0
 10
6.21149
 20
5.64611
 30
0.0
 40
0
 41
0
  0
VERTEX
  8
0
 10
6.36469
 20
5.59814
 30
0.0
 40
0
 41
0
  0
VERTEX
  8
0
 10
6.52197
 20
5.5784
 30
0.0
 40
0
 41
0
  0
VERTEX
  8
0
 10
6.68289
 20
5.59874
 30
0.0
 40
0
 41
0
  0
VERTEX
  8
0
 10
6.78733
 20
5.63986
 30
0.0
 40
0
 41
0
  0
VERTEX
  8
0
 10
6.84733
 20
5.69015
 30
0.0
 40
0
 41
0
  0
VERTEX
  8
0
 10
6.86838
 20
5.7455
 30
0.0
 40
0
 41
0
  0
VERTEX
  8
0
 10
6.85596
 20
5.80171
 30
0.0
 40
0
 41
0
  0
VERTEX
  8
0
 10
6.81538
 20
5.85454
 30
0.0
 40
0
 41
0
  0
VERTEX
  8
0
 10
6.75222
 20
5.8999
 30
0.0
 40
0
 41
0
  0
VERTEX
  8
0
 10
6.67182
 20
5.9336
 30
0.0
 40
0
 41
0
  0
VERTEX
  8
0
 10
6.57969
 20
5.95133
 30
0.0
 40
0
 41
0
  0
VERTEX
  8
0
 10
6.66938
 20
6.04981
 30
0.0
 40
0
 41
0
  0
VERTEX
  8
0
 10
6.76617
 20
6.07314
 30
0.0
 40
0
 41
0
  0
VERTEX
  8
0
 10
6.86729
 20
6.03933
 30
0.0
 40
0
 41
0
  0
VERTEX
  8
0
 10
6.96983
 20
5.96631
 30
0.0
 40
0
 41
0
  0
VERTEX
  8
0
 10
7.07101
 20
5.87207
 30
0.0
 40
0
 41
0
  0
VERTEX
  8
0
 10
7.16792
 20
5.77453
 30
0.0
 40
0
 41
0
  0
VERTEX
  8
0
 10
7.25771
 20
5.69163
 30
0.0
 40
0
 41
0
  0
VERTEX
  8
0
 10
7.33763
 20
5.64128
 30
0.0
 40
0
 41
0
  0
VERTEX
  8
0
 10
7.0261
 20
6.03944
 30
0.0
 40
0
 41
0
  0
VERTEX
  8
0
 10
6.57921
 20
6.20344
 30
0.0
 40
0
 41
0
  0
VERTEX
  8
0
 10
6.16635
 20
7.22597
 30
0.0
 40
0
 41
0
  0
VERTEX
  8
0
 10
6.31825
 20
7.2545
 30
0.0
 40
0
 41
0
  0
VERTEX
  8
0
 10
6.48258
 20
7.278
 30
0.0
 40
0
 41
0
  0
VERTEX
  8
0
 10
6.65419
 20
7.29232
 30
0.0
 40
0
 41
0
  0
VERTEX
  8
0
 10
6.8279
 20
7.2934
 30
0.0
 40
0
 41
0
  0
VERTEX
  8
0
 10
6.99843
 20
7.27718
 30
0.0
 40
0
 41
0
  0
VERTEX
  8
0
 10
7.16069
 20
7.23953
 30
0.0
 40
0
 41
0
  0
VERTEX
  8
0
 10
7.30946
 20
7.17632
 30
0.0
 40
0
 41
0
  0
VERTEX
  8
0
 10
7.43956
 20
7.08356
 30
0.0
 40
0
 41
0
  0
VERTEX
  8
0
 10
7.52121
 20
7.00261
 30
0.0
 40
0
 41
0
  0
VERTEX
  8
0
 10
7.60113
 20
6.90164
 30
0.0
 40
0
 41
0
  0
VERTEX
  8
0
 10
7.65474
 20
6.78965
 30
0.0
 40
0
 41
0
  0
VERTEX
  8
0
 10
7.65761
 20
6.6754
 30
0.0
 40
0
 41
0
  0
VERTEX
  8
0
 10
7.63536
 20
6.62462
 30
0.0
 40
0
 41
0
  0
VERTEX
  8
0
 10
7.60032
 20
6.58117
 30
0.0
 40
0
 41
0
  0
VERTEX
  8
0
 10
7.55583
 20
6.54688
 30
0.0
 40
0
 41
0
  0
VERTEX
  8
0
 10
7.50515
 20
6.52371
 30
0.0
 40
0
 41
0
  0
VERTEX
  8
0
 10
7.45156
 20
6.51351
 30
0.0
 40
0
 41
0
  0
VERTEX
  8
0
 10
7.39844
 20
6.51812
 30
0.0
 40
0
 41
0
  0
VERTEX
  8
0
 10
7.34907
 20
6.53944
 30
0.0
 40
0
 41
0
  0
VERTEX
  8
0
 10
7.30669
 20
6.57926
 30
0.0
 40
0
 41
0
  0
VERTEX
  8
0
 10
7.27587
 20
6.65571
 30
0.0
 40
0
 41
0
  0
VERTEX
  8
0
 10
7.27587
 20
6.74322
 30
0.0
 40
0
 41
0
  0
VERTEX
  8
0
 10
7.29036
 20
6.83285
 30
0.0
 40
0
 41
0
  0
VERTEX
  8
0
 10
7.30317
 20
6.9159
 30
0.0
 40
0
 41
0
  0
VERTEX
  8
0
 10
6.4764
 20
7.08817
 30
0.0
 40
0
 41
0
  0
VERTEX
  8
0
 10
6.54303
 20
6.97131
 30
0.0
 40
0
 41
0
  0
VERTEX
  8
0
 10
6.61925
 20
6.84364
 30
0.0
 40
0
 41
0
  0
VERTEX
  8
0
 10
6.70426
 20
6.71132
 30
0.0
 40
0
 41
0
  0
VERTEX
  8
0
 10
6.79731
 20
6.58008
 30
0.0
 40
0
 41
0
  0
VERTEX
  8
0
 10
6.89763
 20
6.45606
 30
0.0
 40
0
 41
0
  0
VERTEX
  8
0
 10
7.00444
 20
6.34506
 30
0.0
 40
0
 41
0
  0
VERTEX
  8
0
 10
7.11708
 20
6.2531
 30
0.0
 40
0
 41
0
  0
VERTEX
  8
0
 10
7.23475
 20
6.18608
 30
0.0
 40
0
 41
0
  0
VERTEX
  8
0
 10
7.40349
 20
6.13992
 30
0.0
 40
0
 41
0
  0
VERTEX
  8
0
 10
7.56071
 20
6.14774
 30
0.0
 40
0
 41
0
  0
VERTEX
  8
0
 10
7.7021
 20
6.2015
 30
0.0
 40
0
 41
0
  0
VERTEX
  8
0
 10
7.82314
 20
6.29335
 30
0.0
 40
0
 41
0
  0
VERTEX
  8
0
 10
7.91943
 20
6.41521
 30
0.0
 40
0
 41
0
  0
VERTEX
  8
0
 10
7.98665
 20
6.55919
 30
0.0
 40
0
 41
0
  0
VERTEX
  8
0
 10
8.02029
 20
6.71729
 30
0.0
 40
0
 41
0
  0
VERTEX
  8
0
 10
8.01606
 20
6.88146
 30
0.0
 40
0
 41
0
  0
VERTEX
  8
0
 10
7.97407
 20
7.03022
 30
0.0
 40
0
 41
0
  0
VERTEX
  8
0
 10
7.90424
 20
7.13824
 30
0.0
 40
0
 41
0
  0
VERTEX
  8
0
 10
7.81287
 20
7.2161
 30
0.0
 40
0
 41
0
  0
VERTEX
  8
0
 10
7.70622
 20
7.27442
 30
0.0
 40
0
 41
0
  0
VERTEX
  8
0
 10
7.59065
 20
7.32378
 30
0.0
 40
0
 41
0
  0
VERTEX
  8
0
 10
7.47254
 20
7.37478
 30
0.0
 40
0
 41
0
  0
VERTEX
  8
0
 10
7.35807
 20
7.43793
 30
0.0
 40
0
 41
0
  0
VERTEX
  8
0
 10
7.25369
 20
7.52387
 30
0.0
 40
0
 41
0
  0
VERTEX
  8
0
 10
7.18761
 20
7.63585
 30
0.0
 40
0
 41
0
  0
VERTEX
  8
0
 10
7.1524
 20
7.77528
 30
0.0
 40
0
 41
0
  0
VERTEX
  8
0
 10
7.12853
 20
7.92128
 30
0.0
 40
0
 41
0
  0
VERTEX
  8
0
 10
7.09646
 20
8.05274
 30
0.0
 40
0
 41
0
  0
VERTEX
  8
0
 10
7.02756
 20
8.05274
 30
0.0
 40
0
 41
0
  0
VERTEX
  8
0
 10
6.94542
 20
7.93582
 30
0.0
 40
0
 41
0
  0
VERTEX
  8
0
 10
6.84614
 20
7.82769
 30
0.0
 40
0
 41
0
  0
VERTEX
  8
0
 10
6.7321
 20
7.73253
 30
0.0
 40
0
 41
0
  0
VERTEX
  8
0
 10
6.60585
 20
7.65435
 30
0.0
 40
0
 41
0
  0
VERTEX
  8
0
 10
6.46989
 20
7.59722
 30
0.0
 40
0
 41
0
  0
VERTEX
  8
0
 10
6.32667
 20
7.56521
 30
0.0
 40
0
 41
0
  0
VERTEX
  8
0
 10
6.17871
 20
7.56228
 30
0.0
 40
0
 41
0
  0
VERTEX
  8
0
 10
6.02854
 20
7.59256
 30
0.0
 40
0
 41
0
  0
VERTEX
  8
0
 10
5.84706
 20
7.68267
 30
0.0
 40
0
 41
0
  0
VERTEX
  8
0
 10
5.67188
 20
7.81287
 30
0.0
 40
0
 41
0
  0
VERTEX
  8
0
 10
5.49914
 20
7.95182
 30
0.0
 40
0
 41
0
  0
VERTEX
  8
0
 10
5.32497
 20
8.06803
 30
0.0
 40
0
 41
0
  0
VERTEX
  8
0
 10
5.07026
 20
8.19211
 30
0.0
 40
0
 41
0
  0
VERTEX
  8
0
 10
4.80593
 20
8.29574
 30
0.0
 40
0
 41
0
  0
VERTEX
  8
0
 10
4.53413
 20
8.37663
 30
0.0
 40
0
 41
0
  0
VERTEX
  8
0
 10
4.25683
 20
8.4324
 30
0.0
 40
0
 41
0
  0
VERTEX
  8
0
 10
3.97613
 20
8.46089
 30
0.0
 40
0
 41
0
  0
VERTEX
  8
0
 10
3.69417
 20
8.45969
 30
0.0
 40
0
 41
0
  0
VERTEX
  8
0
 10
3.41303
 20
8.42654
 30
0.0
 40
0
 41
0
  0
VERTEX
  8
0
 10
3.13482
 20
8.35915
 30
0.0
 40
0
 41
0
  0
VERTEX
  8
0
 10
2.9745
 20
8.29542
 30
0.0
 40
0
 41
0
  0
VERTEX
  8
0
 10
2.82775
 20
8.21164
 30
0.0
 40
0
 41
0
  0
VERTEX
  8
0
 10
2.69092
 20
8.11317
 30
0.0
 40
0
 41
0
  0
VERTEX
  8
0
 10
2.56054
 20
8.00538
 30
0.0
 40
0
 41
0
  0
VERTEX
  8
0
 10
2.433
 20
7.89361
 30
0.0
 40
0
 41
0
  0
VERTEX
  8
0
 10
2.30474
 20
7.78321
 30
0.0
 40
0
 41
0
  0
VERTEX
  8
0
 10
2.17225
 20
7.67964
 30
0.0
 40
0
 41
0
  0
VERTEX
  8
0
 10
2.03196
 20
7.58811
 30
0.0
 40
0
 41
0
  0
VERTEX
  8
0
 10
1.91932
 20
7.54574
 30
0.0
 40
0
 41
0
  0
VERTEX
  8
0
 10
1.79671
 20
7.52843
 30
0.0
 40
0
 41
0
  0
VERTEX
  8
0
 10
1.67128
 20
7.51932
 30
0.0
 40
0
 41
0
  0
VERTEX
  8
0
 10
1.55018
 20
7.50151
 30
0.0
 40
0
 41
0
  0
SEQEND
 8
0
  0
POLYLINE
  8
0
 62
     0
 66
     1
 10
0
 20
0
 30
0.0
 40
0
 41
0
  0
VERTEX
  8
0
 10
5.61518
 20
7.39817
 30
0.0
 40
0
 41
0
  0
VERTEX
  8
0
 10
4.89171
 20
7.55908
 30
0.0
 40
0
 41
0
  0
VERTEX
  8
0
 10
4.27165
 20
7.36372
 30
0.0
 40
0
 41
0
  0
VERTEX
  8
0
 10
4.03049
 20
8.08718
 30
0.0
 40
0
 41
0
  0
VERTEX
  8
0
 10
3.85829
 20
7.32926
 30
0.0
 40
0
 41
0
  0
VERTEX
  8
0
 10
3.75097
 20
7.37061
 30
0.0
 40
0
 41
0
  0
VERTEX
  8
0
 10
3.64643
 20
7.41282
 30
0.0
 40
0
 41
0
  0
VERTEX
  8
0
 10
3.54324
 20
7.45285
 30
0.0
 40
0
 41
0
  0
VERTEX
  8
0
 10
3.43994
 20
7.48742
 30
0.0
 40
0
 41
0
  0
VERTEX
  8
0
 10
3.33512
 20
7.51329
 30
0.0
 40
0
 41
0
  0
VERTEX
  8
0
 10
3.22732
 20
7.52729
 30
0.0
 40
0
 41
0
  0
VERTEX
  8
0
 10
3.11513
 20
7.52621
 30
0.0
 40
0
 41
0
  0
VERTEX
  8
0
 10
2.99707
 20
7.50678
 30
0.0
 40
0
 41
0
  0
VERTEX
  8
0
 10
2.89387
 20
7.47239
 30
0.0
 40
0
 41
0
  0
VERTEX
  8
0
 10
2.8035
 20
7.42697
 30
0.0
 40
0
 41
0
  0
VERTEX
  8
0
 10
2.72136
 20
7.37592
 30
0.0
 40
0
 41
0
  0
VERTEX
  8
0
 10
2.64285
 20
7.32471
 30
0.0
 40
0
 41
0
  0
VERTEX
  8
0
 10
2.56336
 20
7.27864
 30
0.0
 40
0
 41
0
  0
VERTEX
  8
0
 10
2.4784
 20
7.24328
 30
0.0
 40
0
 41
0
  0
VERTEX
  8
0
 10
2.38336
 20
7.2239
 30
0.0
 40
0
 41
0
  0
VERTEX
  8
0
 10
2.2736
 20
7.22597
 30
0.0
 40
0
 41
0
  0
VERTEX
  8
0
 10
2.33188
 20
7.28336
 30
0.0
 40
0
 41
0
  0
VERTEX
  8
0
 10
2.39556
 20
7.29829
 30
0.0
 40
0
 41
0
  0
VERTEX
  8
0
 10
2.46712
 20
7.28564
 30
0.0
 40
0
 41
0
  0
VERTEX
  8
0
 10
2.54921
 20
7.26036
 30
0.0
 40
0
 41
0
  0
VERTEX
  8
0
 10
2.37696
 20
7.36372
 30
0.0
 40
0
 41
0
  0
VERTEX
  8
0
 10
2.50846
 20
7.53917
 30
0.0
 40
0
 41
0
  0
VERTEX
  8
0
 10
2.6684
 20
7.69401
 30
0.0
 40
0
 41
0
  0
VERTEX
  8
0
 10
2.85271
 20
7.82781
 30
0.0
 40
0
 41
0
  0
VERTEX
  8
0
 10
3.05735
 20
7.93994
 30
0.0
 40
0
 41
0
  0
VERTEX
  8
0
 10
3.27815
 20
8.02983
 30
0.0
 40
0
 41
0
  0
VERTEX
  8
0
 10
3.51118
 20
8.09706
 30
0.0
 40
0
 41
0
  0
VERTEX
  8
0
 10
3.75228
 20
8.14094
 30
0.0
 40
0
 41
0
  0
VERTEX
  8
0
 10
3.99739
 20
8.16103
 30
0.0
 40
0
 41
0
  0
VERTEX
  8
0
 10
4.24246
 20
8.15674
 30
0.0
 40
0
 41
0
  0
VERTEX
  8
0
 10
4.48346
 20
8.1275
 30
0.0
 40
0
 41
0
  0
VERTEX
  8
0
 10
4.71625
 20
8.07281
 30
0.0
 40
0
 41
0
  0
VERTEX
  8
0
 10
4.93679
 20
7.99208
 30
0.0
 40
0
 41
0
  0
VERTEX
  8
0
 10
5.141
 20
7.88482
 30
0.0
 40
0
 41
0
  0
VERTEX
  8
0
 10
5.32487
 20
7.75043
 30
0.0
 40
0
 41
0
  0
VERTEX
  8
0
 10
5.48426
 20
7.58843
 30
0.0
 40
0
 41
0
  0
VERTEX
  8
0
 10
5.61518
 20
7.39817
 30
0.0
 40
0
 41
0
  0
SEQEND
 8
0
  0
POLYLINE
  8
0
 62
     0
 66
     1
 10
0
 20
0
 30
0.0
 40
0
 41
0
  0
VERTEX
  8
0
 10
7.06201
 20
7.91493
 30
0.0
 40
0
 41
0
  0
VERTEX
  8
0
 10
7.13092
 20
7.57042
 30
0.0
 40
0
 41
0
  0
VERTEX
  8
0
 10
7.02756
 20
7.50151
 30
0.0
 40
0
 41
0
  0
VERTEX
  8
0
 10
7.13097
 20
7.46647
 30
0.0
 40
0
 41
0
  0
VERTEX
  8
0
 10
7.23964
 20
7.43283
 30
0.0
 40
0
 41
0
  0
VERTEX
  8
0
 10
7.35058
 20
7.39811
 30
0.0
 40
0
 41
0
  0
VERTEX
  8
0
 10
7.46099
 20
7.35969
 30
0.0
 40
0
 41
0
  0
VERTEX
  8
0
 10
7.56799
 20
7.31511
 30
0.0
 40
0
 41
0
  0
VERTEX
  8
0
 10
7.66862
 20
7.26161
 30
0.0
 40
0
 41
0
  0
VERTEX
  8
0
 10
7.76004
 20
7.19683
 30
0.0
 40
0
 41
0
  0
VERTEX
  8
0
 10
7.83942
 20
7.118
 30
0.0
 40
0
 41
0
  0
VERTEX
  8
0
 10
7.88656
 20
7.05126
 30
0.0
 40
0
 41
0
  0
VERTEX
  8
0
 10
7.92182
 20
6.97954
 30
0.0
 40
0
 41
0
  0
VERTEX
  8
0
 10
7.94553
 20
6.90424
 30
0.0
 40
0
 41
0
  0
VERTEX
  8
0
 10
7.95822
 20
6.82676
 30
0.0
 40
0
 41
0
  0
VERTEX
  8
0
 10
7.96029
 20
6.74854
 30
0.0
 40
0
 41
0
  0
VERTEX
  8
0
 10
7.95215
 20
6.6709
 30
0.0
 40
0
 41
0
  0
VERTEX
  8
0
 10
7.93431
 20
6.59538
 30
0.0
 40
0
 41
0
  0
VERTEX
  8
0
 10
7.90707
 20
6.52322
 30
0.0
 40
0
 41
0
  0
VERTEX
  8
0
 10
7.87099
 20
6.456
 30
0.0
 40
0
 41
0
  0
VERTEX
  8
0
 10
7.8265
 20
6.39497
 30
0.0
 40
0
 41
0
  0
VERTEX
  8
0
 10
7.77393
 20
6.34164
 30
0.0
 40
0
 41
0
  0
VERTEX
  8
0
 10
7.71386
 20
6.29731
 30
0.0
 40
0
 41
0
  0
VERTEX
  8
0
 10
7.6466
 20
6.26346
 30
0.0
 40
0
 41
0
  0
VERTEX
  8
0
 10
7.57269
 20
6.24154
 30
0.0
 40
0
 41
0
  0
VERTEX
  8
0
 10
7.49251
 20
6.23281
 30
0.0
 40
0
 41
0
  0
VERTEX
  8
0
 10
7.40653
 20
6.23876
 30
0.0
 40
0
 41
0
  0
VERTEX
  8
0
 10
7.2781
 20
6.27821
 30
0.0
 40
0
 41
0
  0
VERTEX
  8
0
 10
7.16103
 20
6.34993
 30
0.0
 40
0
 41
0
  0
VERTEX
  8
0
 10
7.05453
 20
6.44672
 30
0.0
 40
0
 41
0
  0
VERTEX
  8
0
 10
6.95757
 20
6.56136
 30
0.0
 40
0
 41
0
  0
VERTEX
  8
0
 10
6.86942
 20
6.68664
 30
0.0
 40
0
 41
0
  0
VERTEX
  8
0
 10
6.78911
 20
6.81521
 30
0.0
 40
0
 41
0
  0
VERTEX
  8
0
 10
6.71576
 20
6.94
 30
0.0
 40
0
 41
0
  0
VERTEX
  8
0
 10
6.6486
 20
7.05371
 30
0.0
 40
0
 41
0
  0
VERTEX
  8
0
 10
7.02756
 20
6.9159
 30
0.0
 40
0
 41
0
  0
VERTEX
  8
0
 10
7.02756
 20
6.7781
 30
0.0
 40
0
 41
0
  0
VERTEX
  8
0
 10
7.19982
 20
6.847
 30
0.0
 40
0
 41
0
  0
VERTEX
  8
0
 10
7.18799
 20
6.76779
 30
0.0
 40
0
 41
0
  0
VERTEX
  8
0
 10
7.19049
 20
6.69667
 30
0.0
 40
0
 41
0
  0
VERTEX
  8
0
 10
7.20551
 20
6.63396
 30
0.0
 40
0
 41
0
  0
VERTEX
  8
0
 10
7.23128
 20
6.57986
 30
0.0
 40
0
 41
0
  0
VERTEX
  8
0
 10
7.266
 20
6.53472
 30
0.0
 40
0
 41
0
  0
VERTEX
  8
0
 10
7.308
 20
6.49881
 30
0.0
 40
0
 41
0
  0
VERTEX
  8
0
 10
7.35542
 20
6.47244
 30
0.0
 40
0
 41
0
  0
VERTEX
  8
0
 10
7.40657
 20
6.45583
 30
0.0
 40
0
 41
0
  0
VERTEX
  8
0
 10
7.45964
 20
6.44933
 30
0.0
 40
0
 41
0
  0
VERTEX
  8
0
 10
7.51292
 20
6.45318
 30
0.0
 40
0
 41
0
  0
VERTEX
  8
0
 10
7.56461
 20
6.46767
 30
0.0
 40
0
 41
0
  0
VERTEX
  8
0
 10
7.61296
 20
6.49311
 30
0.0
 40
0
 41
0
  0
VERTEX
  8
0
 10
7.65614
 20
6.52974
 30
0.0
 40
0
 41
0
  0
VERTEX
  8
0
 10
7.69254
 20
6.57785
 30
0.0
 40
0
 41
0
  0
VERTEX
  8
0
 10
7.72026
 20
6.63775
 30
0.0
 40
0
 41
0
  0
VERTEX
  8
0
 10
7.73763
 20
6.70969
 30
0.0
 40
0
 41
0
  0
VERTEX
  8
0
 10
7.73503
 20
6.82861
 30
0.0
 40
0
 41
0
  0
VERTEX
  8
0
 10
7.69586
 20
6.93967
 30
0.0
 40
0
 41
0
  0
VERTEX
  8
0
 10
7.62733
 20
7.04129
 30
0.0
 40
0
 41
0
  0
VERTEX
  8
0
 10
7.53668
 20
7.13167
 30
0.0
 40
0
 41
0
  0
VERTEX
  8
0
 10
7.43104
 20
7.20925
 30
0.0
 40
0
 41
0
  0
VERTEX
  8
0
 10
7.31771
 20
7.27219
 30
0.0
 40
0
 41
0
  0
VERTEX
  8
0
 10
7.20372
 20
7.3189
 30
0.0
 40
0
 41
0
  0
VERTEX
  8
0
 10
7.09646
 20
7.3476
 30
0.0
 40
0
 41
0
  0
VERTEX
  8
0
 10
6.92378
 20
7.37304
 30
0.0
 40
0
 41
0
  0
VERTEX
  8
0
 10
6.75119
 20
7.38417
 30
0.0
 40
0
 41
0
  0
VERTEX
  8
0
 10
6.58078
 20
7.38103
 30
0.0
 40
0
 41
0
  0
VERTEX
  8
0
 10
6.41493
 20
7.36361
 30
0.0
 40
0
 41
0
  0
VERTEX
  8
0
 10
6.25569
 20
7.33176
 30
0.0
 40
0
 41
0
  0
VERTEX
  8
0
 10
6.10542
 20
7.28549
 30
0.0
 40
0
 41
0
  0
VERTEX
  8
0
 10
5.96625
 20
7.22478
 30
0.0
 40
0
 41
0
  0
VERTEX
  8
0
 10
5.84044
 20
7.14958
 30
0.0
 40
0
 41
0
  0
VERTEX
  8
0
 10
5.73014
 20
7.05979
 30
0.0
 40
0
 41
0
  0
VERTEX
  8
0
 10
5.63769
 20
6.9554
 30
0.0
 40
0
 41
0
  0
VERTEX
  8
0
 10
5.56526
 20
6.83643
 30
0.0
 40
0
 41
0
  0
VERTEX
  8
0
 10
5.51503
 20
6.70275
 30
0.0
 40
0
 41
0
  0
VERTEX
  8
0
 10
5.48921
 20
6.55431
 30
0.0
 40
0
 41
0
  0
VERTEX
  8
0
 10
5.49007
 20
6.39111
 30
0.0
 40
0
 41
0
  0
VERTEX
  8
0
 10
5.51986
 20
6.21311
 30
0.0
 40
0
 41
0
  0
VERTEX
  8
0
 10
5.58072
 20
6.02024
 30
0.0
 40
0
 41
0
  0
VERTEX
  8
0
 10
5.61518
 20
6.02024
 30
0.0
 40
0
 41
0
  0
VERTEX
  8
0
 10
5.54628
 20
6.64031
 30
0.0
 40
0
 41
0
  0
VERTEX
  8
0
 10
5.60531
 20
6.58008
 30
0.0
 40
0
 41
0
  0
VERTEX
  8
0
 10
5.64908
 20
6.50433
 30
0.0
 40
0
 41
0
  0
VERTEX
  8
0
 10
5.67979
 20
6.41715
 30
0.0
 40
0
 41
0
  0
VERTEX
  8
0
 10
5.69982
 20
6.3226
 30
0.0
 40
0
 41
0
  0
VERTEX
  8
0
 10
5.71137
 20
6.22467
 30
0.0
 40
0
 41
0
  0
VERTEX
  8
0
 10
5.71679
 20
6.1275
 30
0.0
 40
0
 41
0
  0
VERTEX
  8
0
 10
5.71843
 20
6.035
 30
0.0
 40
0
 41
0
  0
VERTEX
  8
0
 10
5.71847
 20
5.95133
 30
0.0
 40
0
 41
0
  0
VERTEX
  8
0
 10
5.68408
 20
5.95133
 30
0.0
 40
0
 41
0
  0
VERTEX
  8
0
 10
5.61518
 20
6.02024
 30
0.0
 40
0
 41
0
  0
VERTEX
  8
0
 10
5.66401
 20
5.8915
 30
0.0
 40
0
 41
0
  0
VERTEX
  8
0
 10
5.68083
 20
5.76893
 30
0.0
 40
0
 41
0
  0
VERTEX
  8
0
 10
5.67236
 20
5.65056
 30
0.0
 40
0
 41
0
  0
VERTEX
  8
0
 10
5.64551
 20
5.53456
 30
0.0
 40
0
 41
0
  0
VERTEX
  8
0
 10
5.60704
 20
5.41894
 30
0.0
 40
0
 41
0
  0
VERTEX
  8
0
 10
5.56386
 20
5.30186
 30
0.0
 40
0
 41
0
  0
VERTEX
  8
0
 10
5.52268
 20
5.18142
 30
0.0
 40
0
 41
0
  0
VERTEX
  8
0
 10
5.4904
 20
5.05567
 30
0.0
 40
0
 41
0
  0
VERTEX
  8
0
 10
5.48063
 20
4.85807
 30
0.0
 40
0
 41
0
  0
VERTEX
  8
0
 10
5.52344
 20
4.67031
 30
0.0
 40
0
 41
0
  0
VERTEX
  8
0
 10
5.60678
 20
4.49431
 30
0.0
 40
0
 41
0
  0
VERTEX
  8
0
 10
5.71847
 20
4.33225
 30
0.0
 40
0
 41
0
  0
VERTEX
  8
0
 10
5.67085
 20
4.29428
 30
0.0
 40
0
 41
0
  0
VERTEX
  8
0
 10
5.62278
 20
4.25771
 30
0.0
 40
0
 41
0
  0
VERTEX
  8
0
 10
5.57568
 20
4.22726
 30
0.0
 40
0
 41
0
  0
VERTEX
  8
0
 10
5.53114
 20
4.20768
 30
0.0
 40
0
 41
0
  0
VERTEX
  8
0
 10
5.49067
 20
4.20367
 30
0.0
 40
0
 41
0
  0
VERTEX
  8
0
 10
5.45572
 20
4.21994
 30
0.0
 40
0
 41
0
  0
VERTEX
  8
0
 10
5.42779
 20
4.26124
 30
0.0
 40
0
 41
0
  0
VERTEX
  8
0
 10
5.40847
 20
4.33225
 30
0.0
 40
0
 41
0
  0
VERTEX
  8
0
 10
4.99507
 20
4.16
 30
0.0
 40
0
 41
0
  0
VERTEX
  8
0
 10
5.44293
 20
5.60682
 30
0.0
 40
0
 41
0
  0
VERTEX
  8
0
 10
5.23622
 20
5.19347
 30
0.0
 40
0
 41
0
  0
VERTEX
  8
0
 10
5.03244
 20
5.14611
 30
0.0
 40
0
 41
0
  0
VERTEX
  8
0
 10
4.83996
 20
5.10883
 30
0.0
 40
0
 41
0
  0
VERTEX
  8
0
 10
4.64751
 20
5.10531
 30
0.0
 40
0
 41
0
  0
VERTEX
  8
0
 10
4.4439
 20
5.15901
 30
0.0
 40
0
 41
0
  0
VERTEX
  8
0
 10
4.58171
 20
4.98676
 30
0.0
 40
0
 41
0
  0
VERTEX
  8
0
 10
4.16829
 20
4.98676
 30
0.0
 40
0
 41
0
  0
VERTEX
  8
0
 10
4.16829
 20
5.26237
 30
0.0
 40
0
 41
0
  0
VERTEX
  8
0
 10
4.3986
 20
5.273
 30
0.0
 40
0
 41
0
  0
VERTEX
  8
0
 10
4.58729
 20
5.32704
 30
0.0
 40
0
 41
0
  0
VERTEX
  8
0
 10
4.73281
 20
5.41911
 30
0.0
 40
0
 41
0
  0
VERTEX
  8
0
 10
4.83339
 20
5.54378
 30
0.0
 40
0
 41
0
  0
VERTEX
  8
0
 10
4.88743
 20
5.69581
 30
0.0
 40
0
 41
0
  0
VERTEX
  8
0
 10
4.89328
 20
5.86963
 30
0.0
 40
0
 41
0
  0
VERTEX
  8
0
 10
4.84933
 20
6.05994
 30
0.0
 40
0
 41
0
  0
VERTEX
  8
0
 10
4.75396
 20
6.26139
 30
0.0
 40
0
 41
0
  0
VERTEX
  8
0
 10
4.84256
 20
6.36703
 30
0.0
 40
0
 41
0
  0
VERTEX
  8
0
 10
4.88531
 20
6.48085
 30
0.0
 40
0
 41
0
  0
VERTEX
  8
0
 10
4.89675
 20
6.60553
 30
0.0
 40
0
 41
0
  0
VERTEX
  8
0
 10
4.89171
 20
6.74365
 30
0.0
 40
0
 41
0
  0
VERTEX
  8
0
 10
4.85726
 20
6.74365
 30
0.0
 40
0
 41
0
  0
VERTEX
  8
0
 10
4.79514
 20
6.65056
 30
0.0
 40
0
 41
0
  0
VERTEX
  8
0
 10
4.72504
 20
6.58117
 30
0.0
 40
0
 41
0
  0
VERTEX
  8
0
 10
4.64763
 20
6.53207
 30
0.0
 40
0
 41
0
  0
VERTEX
  8
0
 10
4.56332
 20
6.49972
 30
0.0
 40
0
 41
0
  0
VERTEX
  8
0
 10
4.47265
 20
6.48063
 30
0.0
 40
0
 41
0
  0
VERTEX
  8
0
 10
4.37625
 20
6.47131
 30
0.0
 40
0
 41
0
  0
VERTEX
  8
0
 10
4.27458
 20
6.46832
 30
0.0
 40
0
 41
0
  0
VERTEX
  8
0
 10
4.16829
 20
6.46804
 30
0.0
 40
0
 41
0
  0
VERTEX
  8
0
 10
4.21967
 20
6.64497
 30
0.0
 40
0
 41
0
  0
VERTEX
  8
0
 10
4.27393
 20
6.8036
 30
0.0
 40
0
 41
0
  0
VERTEX
  8
0
 10
4.33703
 20
6.93946
 30
0.0
 40
0
 41
0
  0
VERTEX
  8
0
 10
4.41493
 20
7.04818
 30
0.0
 40
0
 41
0
  0
VERTEX
  8
0
 10
4.51372
 20
7.12528
 30
0.0
 40
0
 41
0
  0
VERTEX
  8
0
 10
4.63932
 20
7.16635
 30
0.0
 40
0
 41
0
  0
VERTEX
  8
0
 10
4.79775
 20
7.16694
 30
0.0
 40
0
 41
0
  0
VERTEX
  8
0
 10
4.99507
 20
7.12261
 30
0.0
 40
0
 41
0
  0
VERTEX
  8
0
 10
4.99507
 20
6.95036
 30
0.0
 40
0
 41
0
  0
VERTEX
  8
0
 10
5.07232
 20
7.01042
 30
0.0
 40
0
 41
0
  0
VERTEX
  8
0
 10
5.10732
 20
7.07964
 30
0.0
 40
0
 41
0
  0
VERTEX
  8
0
 10
5.11203
 20
7.16178
 30
0.0
 40
0
 41
0
  0
VERTEX
  8
0
 10
5.09842
 20
7.26036
 30
0.0
 40
0
 41
0
  0
VERTEX
  8
0
 10
5.18924
 20
7.18528
 30
0.0
 40
0
 41
0
  0
VERTEX
  8
0
 10
5.236
 20
7.10021
 30
0.0
 40
0
 41
0
  0
VERTEX
  8
0
 10
5.24864
 20
7.00672
 30
0.0
 40
0
 41
0
  0
VERTEX
  8
0
 10
5.23708
 20
6.90636
 30
0.0
 40
0
 41
0
  0
VERTEX
  8
0
 10
5.21121
 20
6.80078
 30
0.0
 40
0
 41
0
  0
VERTEX
  8
0
 10
5.18093
 20
6.69146
 30
0.0
 40
0
 41
0
  0
VERTEX
  8
0
 10
5.15614
 20
6.57997
 30
0.0
 40
0
 41
0
  0
VERTEX
  8
0
 10
5.14675
 20
6.46793
 30
0.0
 40
0
 41
0
  0
VERTEX
  8
0
 10
5.18533
 20
6.23047
 30
0.0
 40
0
 41
0
  0
VERTEX
  8
0
 10
5.28515
 20
6.01719
 30
0.0
 40
0
 41
0
  0
VERTEX
  8
0
 10
5.43283
 20
5.83128
 30
0.0
 40
0
 41
0
  0
VERTEX
  8
0
 10
5.61518
 20
5.67572
 30
0.0
 40
0
 41
0
  0
VERTEX
  8
0
 10
5.52203
 20
5.79053
 30
0.0
 40
0
 41
0
  0
VERTEX
  8
0
 10
5.42844
 20
5.90451
 30
0.0
 40
0
 41
0
  0
VERTEX
  8
0
 10
5.34467
 20
6.02474
 30
0.0
 40
0
 41
0
  0
VERTEX
  8
0
 10
5.28119
 20
6.15804
 30
0.0
 40
0
 41
0
  0
VERTEX
  8
0
 10
5.2346
 20
6.3546
 30
0.0
 40
0
 41
0
  0
VERTEX
  8
0
 10
5.229
 20
6.5536
 30
0.0
 40
0
 41
0
  0
VERTEX
  8
0
 10
5.26133
 20
6.74924
 30
0.0
 40
0
 41
0
  0
VERTEX
  8
0
 10
5.32883
 20
6.93593
 30
0.0
 40
0
 41
0
  0
VERTEX
  8
0
 10
5.42844
 20
7.10786
 30
0.0
 40
0
 41
0
  0
VERTEX
  8
0
 10
5.55724
 20
7.25939
 30
0.0
 40
0
 41
0
  0
VERTEX
  8
0
 10
5.71229
 20
7.38471
 30
0.0
 40
0
 41
0
  0
VERTEX
  8
0
 10
5.89074
 20
7.47819
 30
0.0
 40
0
 41
0
  0
VERTEX
  8
0
 10
6.0599
 20
7.53369
 30
0.0
 40
0
 41
0
  0
VERTEX
  8
0
 10
6.21696
 20
7.56668
 30
0.0
 40
0
 41
0
  0
VERTEX
  8
0
 10
6.36469
 20
7.58826
 30
0.0
 40
0
 41
0
  0
VERTEX
  8
0
 10
6.50597
 20
7.6096
 30
0.0
 40
0
 41
0
  0
VERTEX
  8
0
 10
6.6435
 20
7.64176
 30
0.0
 40
0
 41
0
  0
VERTEX
  8
0
 10
6.78017
 20
7.69596
 30
0.0
 40
0
 41
0
  0
VERTEX
  8
0
 10
6.91872
 20
7.78331
 30
0.0
 40
0
 41
0
  0
VERTEX
  8
0
 10
7.06201
 20
7.91493
 30
0.0
 40
0
 41
0
  0
SEQEND
 8
0
  0
POLYLINE
  8
0
 62
     0
 66
     1
 10
0
 20
0
 30
0.0
 40
0
 41
0
  0
VERTEX
  8
0
 10
1.44683
 20
7.74268
 30
0.0
 40
0
 41
0
  0
VERTEX
  8
0
 10
1.48128
 20
7.43261
 30
0.0
 40
0
 41
0
  0
VERTEX
  8
0
 10
1.92914
 20
7.50151
 30
0.0
 40
0
 41
0
  0
VERTEX
  8
0
 10
1.41238
 20
6.98481
 30
0.0
 40
0
 41
0
  0
VERTEX
  8
0
 10
1.65354
 20
7.08817
 30
0.0
 40
0
 41
0
  0
VERTEX
  8
0
 10
1.65354
 20
7.12261
 30
0.0
 40
0
 41
0
  0
VERTEX
  8
0
 10
1.55018
 20
7.05371
 30
0.0
 40
0
 41
0
  0
VERTEX
  8
0
 10
1.51574
 20
7.05371
 30
0.0
 40
0
 41
0
  0
VERTEX
  8
0
 10
1.72244
 20
7.22597
 30
0.0
 40
0
 41
0
  0
VERTEX
  8
0
 10
1.65354
 20
7.08817
 30
0.0
 40
0
 41
0
  0
VERTEX
  8
0
 10
1.65608
 20
6.99778
 30
0.0
 40
0
 41
0
  0
VERTEX
  8
0
 10
1.63297
 20
6.91135
 30
0.0
 40
0
 41
0
  0
VERTEX
  8
0
 10
1.58942
 20
6.83572
 30
0.0
 40
0
 41
0
  0
VERTEX
  8
0
 10
1.53049
 20
6.77761
 30
0.0
 40
0
 41
0
  0
VERTEX
  8
0
 10
1.46153
 20
6.74371
 30
0.0
 40
0
 41
0
  0
VERTEX
  8
0
 10
1.3877
 20
6.74083
 30
0.0
 40
0
 41
0
  0
VERTEX
  8
0
 10
1.31424
 20
6.77561
 30
0.0
 40
0
 41
0
  0
VERTEX
  8
0
 10
1.24631
 20
6.85487
 30
0.0
 40
0
 41
0
  0
VERTEX
  8
0
 10
1.21495
 20
6.94444
 30
0.0
 40
0
 41
0
  0
VERTEX
  8
0
 10
1.21218
 20
7.05294
 30
0.0
 40
0
 41
0
  0
VERTEX
  8
0
 10
1.23166
 20
7.17404
 30
0.0
 40
0
 41
0
  0
VERTEX
  8
0
 10
1.26725
 20
7.30126
 30
0.0
 40
0
 41
0
  0
VERTEX
  8
0
 10
1.31277
 20
7.42817
 30
0.0
 40
0
 41
0
  0
VERTEX
  8
0
 10
1.36198
 20
7.54833
 30
0.0
 40
0
 41
0
  0
VERTEX
  8
0
 10
1.40875
 20
7.65533
 30
0.0
 40
0
 41
0
  0
VERTEX
  8
0
 10
1.44683
 20
7.74268
 30
0.0
 40
0
 41
0
  0
SEQEND
 8
0
  0
POLYLINE
  8
0
 62
     0
 66
     1
 10
0
 20
0
 30
0.0
 40
0
 41
0
  0
VERTEX
  8
0
 10
0.964572
 20
6.22694
 30
0.0
 40
0
 41
0
  0
VERTEX
  8
0
 10
0.991808
 20
6.81256
 30
0.0
 40
0
 41
0
  0
VERTEX
  8
0
 10
0.861219
 20
7.36372
 30
0.0
 40
0
 41
0
  0
VERTEX
  8
0
 10
0.792318
 20
7.36372
 30
0.0
 40
0
 41
0
  0
VERTEX
  8
0
 10
0.733724
 20
7.04482
 30
0.0
 40
0
 41
0
  0
VERTEX
  8
0
 10
0.749403
 20
6.73085
 30
0.0
 40
0
 41
0
  0
VERTEX
  8
0
 10
0.820475
 20
6.42063
 30
0.0
 40
0
 41
0
  0
VERTEX
  8
0
 10
0.927897
 20
6.1129
 30
0.0
 40
0
 41
0
  0
VERTEX
  8
0
 10
1.05284
 20
5.80653
 30
0.0
 40
0
 41
0
  0
VERTEX
  8
0
 10
1.17638
 20
5.50032
 30
0.0
 40
0
 41
0
  0
VERTEX
  8
0
 10
1.27957
 20
5.19303
 30
0.0
 40
0
 41
0
  0
VERTEX
  8
0
 10
1.34348
 20
4.8834
 30
0.0
 40
0
 41
0
  0
VERTEX
  8
0
 10
1.37793
 20
4.8834
 30
0.0
 40
0
 41
0
  0
VERTEX
  8
0
 10
1.34348
 20
5.22792
 30
0.0
 40
0
 41
0
  0
VERTEX
  8
0
 10
2.20469
 20
4.05664
 30
0.0
 40
0
 41
0
  0
VERTEX
  8
0
 10
2.20469
 20
4.02219
 30
0.0
 40
0
 41
0
  0
VERTEX
  8
0
 10
1.37793
 20
3.95329
 30
0.0
 40
0
 41
0
  0
VERTEX
  8
0
 10
1.44683
 20
4.47006
 30
0.0
 40
0
 41
0
  0
VERTEX
  8
0
 10
1.61908
 20
4.40115
 30
0.0
 40
0
 41
0
  0
VERTEX
  8
0
 10
1.65354
 20
4.71115
 30
0.0
 40
0
 41
0
  0
VERTEX
  8
0
 10
1.61908
 20
4.71115
 30
0.0
 40
0
 41
0
  0
VERTEX
  8
0
 10
1.61908
 20
4.53896
 30
0.0
 40
0
 41
0
  0
VERTEX
  8
0
 10
1.57292
 20
4.55317
 30
0.0
 40
0
 41
0
  0
VERTEX
  8
0
 10
1.52783
 20
4.57297
 30
0.0
 40
0
 41
0
  0
VERTEX
  8
0
 10
1.48742
 20
4.59782
 30
0.0
 40
0
 41
0
  0
VERTEX
  8
0
 10
1.45524
 20
4.62728
 30
0.0
 40
0
 41
0
  0
VERTEX
  8
0
 10
1.43494
 20
4.66081
 30
0.0
 40
0
 41
0
  0
VERTEX
  8
0
 10
1.43013
 20
4.69775
 30
0.0
 40
0
 41
0
  0
VERTEX
  8
0
 10
1.44433
 20
4.73774
 30
0.0
 40
0
 41
0
  0
VERTEX
  8
0
 10
1.48128
 20
4.78006
 30
0.0
 40
0
 41
0
  0
VERTEX
  8
0
 10
1.48128
 20
4.81451
 30
0.0
 40
0
 41
0
  0
VERTEX
  8
0
 10
1.41238
 20
4.8834
 30
0.0
 40
0
 41
0
  0
VERTEX
  8
0
 10
1.37793
 20
4.8834
 30
0.0
 40
0
 41
0
  0
VERTEX
  8
0
 10
1.34348
 20
3.98774
 30
0.0
 40
0
 41
0
  0
VERTEX
  8
0
 10
1.23741
 20
4.08225
 30
0.0
 40
0
 41
0
  0
VERTEX
  8
0
 10
1.17839
 20
4.21371
 30
0.0
 40
0
 41
0
  0
VERTEX
  8
0
 10
1.15072
 20
4.37169
 30
0.0
 40
0
 41
0
  0
VERTEX
  8
0
 10
1.13856
 20
4.54568
 30
0.0
 40
0
 41
0
  0
VERTEX
  8
0
 10
1.12619
 20
4.72532
 30
0.0
 40
0
 41
0
  0
VERTEX
  8
0
 10
1.09787
 20
4.90012
 30
0.0
 40
0
 41
0
  0
VERTEX
  8
0
 10
1.03776
 20
5.05968
 30
0.0
 40
0
 41
0
  0
VERTEX
  8
0
 10
0.930122
 20
5.19347
 30
0.0
 40
0
 41
0
  0
VERTEX
  8
0
 10
0.757867
 20
5.05567
 30
0.0
 40
0
 41
0
  0
VERTEX
  8
0
 10
0.795193
 20
5.28396
 30
0.0
 40
0
 41
0
  0
VERTEX
  8
0
 10
0.796875
 20
5.49957
 30
0.0
 40
0
 41
0
  0
VERTEX
  8
0
 10
0.771756
 20
5.70638
 30
0.0
 40
0
 41
0
  0
VERTEX
  8
0
 10
0.728569
 20
5.90831
 30
0.0
 40
0
 41
0
  0
VERTEX
  8
0
 10
0.676215
 20
6.10915
 30
0.0
 40
0
 41
0
  0
VERTEX
  8
0
 10
0.623481
 20
6.31272
 30
0.0
 40
0
 41
0
  0
VERTEX
  8
0
 10
0.579156
 20
6.52294
 30
0.0
 40
0
 41
0
  0
VERTEX
  8
0
 10
0.552083
 20
6.74365
 30
0.0
 40
0
 41
0
  0
VERTEX
  8
0
 10
0.545953
 20
6.83664
 30
0.0
 40
0
 41
0
  0
VERTEX
  8
0
 10
0.541883
 20
6.93175
 30
0.0
 40
0
 41
0
  0
VERTEX
  8
0
 10
0.542481
 20
7.0274
 30
0.0
 40
0
 41
0
  0
VERTEX
  8
0
 10
0.550347
 20
7.12196
 30
0.0
 40
0
 41
0
  0
VERTEX
  8
0
 10
0.568088
 20
7.21371
 30
0.0
 40
0
 41
0
  0
VERTEX
  8
0
 10
0.598307
 20
7.30111
 30
0.0
 40
0
 41
0
  0
VERTEX
  8
0
 10
0.643664
 20
7.38249
 30
0.0
 40
0
 41
0
  0
VERTEX
  8
0
 10
0.706814
 20
7.45611
 30
0.0
 40
0
 41
0
  0
VERTEX
  8
0
 10
0.770128
 20
7.50092
 30
0.0
 40
0
 41
0
  0
VERTEX
  8
0
 10
0.832303
 20
7.51747
 30
0.0
 40
0
 41
0
  0
VERTEX
  8
0
 10
0.89171
 20
7.50999
 30
0.0
 40
0
 41
0
  0
VERTEX
  8
0
 10
0.946778
 20
7.48269
 30
0.0
 40
0
 41
0
  0
VERTEX
  8
0
 10
0.995931
 20
7.43978
 30
0.0
 40
0
 41
0
  0
VERTEX
  8
0
 10
1.03754
 20
7.38536
 30
0.0
 40
0
 41
0
  0
VERTEX
  8
0
 10
1.0701
 20
7.32374
 30
0.0
 40
0
 41
0
  0
VERTEX
  8
0
 10
1.09201
 20
7.259
 30
0.0
 40
0
 41
0
  0
VERTEX
  8
0
 10
1.11572
 20
7.13792
 30
0.0
 40
0
 41
0
  0
VERTEX
  8
0
 10
1.12988
 20
7.00592
 30
0.0
 40
0
 41
0
  0
VERTEX
  8
0
 10
1.13363
 20
6.86735
 30
0.0
 40
0
 41
0
  0
VERTEX
  8
0
 10
1.12603
 20
6.72656
 30
0.0
 40
0
 41
0
  0
VERTEX
  8
0
 10
1.10623
 20
6.58778
 30
0.0
 40
0
 41
0
  0
VERTEX
  8
0
 10
1.07335
 20
6.45535
 30
0.0
 40
0
 41
0
  0
VERTEX
  8
0
 10
1.02637
 20
6.33365
 30
0.0
 40
0
 41
0
  0
VERTEX
  8
0
 10
0.964572
 20
6.22694
 30
0.0
 40
0
 41
0
  0
SEQEND
 8
0
  0
POLYLINE
  8
0
 62
     0
 66
     1
 10
0
 20
0
 30
0.0
 40
0
 41
0
  0
VERTEX
  8
0
 10
3.20372
 20
7.29482
 30
0.0
 40
0
 41
0
  0
VERTEX
  8
0
 10
3.20372
 20
7.26036
 30
0.0
 40
0
 41
0
  0
VERTEX
  8
0
 10
2.99707
 20
7.08817
 30
0.0
 40
0
 41
0
  0
VERTEX
  8
0
 10
3.06944
 20
7.09879
 30
0.0
 40
0
 41
0
  0
VERTEX
  8
0
 10
3.15007
 20
7.10476
 30
0.0
 40
0
 41
0
  0
VERTEX
  8
0
 10
3.23665
 20
7.10574
 30
0.0
 40
0
 41
0
  0
VERTEX
  8
0
 10
3.32699
 20
7.10124
 30
0.0
 40
0
 41
0
  0
VERTEX
  8
0
 10
3.41868
 20
7.09071
 30
0.0
 40
0
 41
0
  0
VERTEX
  8
0
 10
3.50956
 20
7.07378
 30
0.0
 40
0
 41
0
  0
VERTEX
  8
0
 10
3.59728
 20
7.04992
 30
0.0
 40
0
 41
0
  0
VERTEX
  8
0
 10
3.67964
 20
7.01872
 30
0.0
 40
0
 41
0
  0
VERTEX
  8
0
 10
3.75433
 20
6.97965
 30
0.0
 40
0
 41
0
  0
VERTEX
  8
0
 10
3.81912
 20
6.93235
 30
0.0
 40
0
 41
0
  0
VERTEX
  8
0
 10
3.87164
 20
6.87625
 30
0.0
 40
0
 41
0
  0
VERTEX
  8
0
 10
3.90972
 20
6.81093
 30
0.0
 40
0
 41
0
  0
VERTEX
  8
0
 10
3.9311
 20
6.73589
 30
0.0
 40
0
 41
0
  0
VERTEX
  8
0
 10
3.93343
 20
6.65072
 30
0.0
 40
0
 41
0
  0
VERTEX
  8
0
 10
3.91444
 20
6.55496
 30
0.0
 40
0
 41
0
  0
VERTEX
  8
0
 10
3.87196
 20
6.44803
 30
0.0
 40
0
 41
0
  0
VERTEX
  8
0
 10
3.83274
 20
6.39165
 30
0.0
 40
0
 41
0
  0
VERTEX
  8
0
 10
3.77778
 20
6.34239
 30
0.0
 40
0
 41
0
  0
VERTEX
  8
0
 10
3.71175
 20
6.29769
 30
0.0
 40
0
 41
0
  0
VERTEX
  8
0
 10
3.63938
 20
6.25504
 30
0.0
 40
0
 41
0
  0
VERTEX
  8
0
 10
3.56532
 20
6.21197
 30
0.0
 40
0
 41
0
  0
VERTEX
  8
0
 10
3.49419
 20
6.16581
 30
0.0
 40
0
 41
0
  0
VERTEX
  8
0
 10
3.43078
 20
6.11404
 30
0.0
 40
0
 41
0
  0
VERTEX
  8
0
 10
3.37972
 20
6.05419
 30
0.0
 40
0
 41
0
  0
VERTEX
  8
0
 10
3.32981
 20
5.96588
 30
0.0
 40
0
 41
0
  0
VERTEX
  8
0
 10
3.29514
 20
5.87408
 30
0.0
 40
0
 41
0
  0
VERTEX
  8
0
 10
3.2749
 20
5.78006
 30
0.0
 40
0
 41
0
  0
VERTEX
  8
0
 10
3.26833
 20
5.68479
 30
0.0
 40
0
 41
0
  0
VERTEX
  8
0
 10
3.27458
 20
5.58946
 30
0.0
 40
0
 41
0
  0
VERTEX
  8
0
 10
3.29286
 20
5.49511
 30
0.0
 40
0
 41
0
  0
VERTEX
  8
0
 10
3.32238
 20
5.40289
 30
0.0
 40
0
 41
0
  0
VERTEX
  8
0
 10
3.36231
 20
5.31392
 30
0.0
 40
0
 41
0
  0
VERTEX
  8
0
 10
3.41189
 20
5.22917
 30
0.0
 40
0
 41
0
  0
VERTEX
  8
0
 10
3.47026
 20
5.14985
 30
0.0
 40
0
 41
0
  0
VERTEX
  8
0
 10
3.53674
 20
5.07704
 30
0.0
 40
0
 41
0
  0
VERTEX
  8
0
 10
3.6104
 20
5.01183
 30
0.0
 40
0
 41
0
  0
VERTEX
  8
0
 10
3.69054
 20
4.95535
 30
0.0
 40
0
 41
0
  0
VERTEX
  8
0
 10
3.77632
 20
4.90864
 30
0.0
 40
0
 41
0
  0
VERTEX
  8
0
 10
3.86692
 20
4.87283
 30
0.0
 40
0
 41
0
  0
VERTEX
  8
0
 10
3.96158
 20
4.84896
 30
0.0
 40
0
 41
0
  0
VERTEX
  8
0
 10
3.93875
 20
4.67839
 30
0.0
 40
0
 41
0
  0
VERTEX
  8
0
 10
3.89154
 20
4.52436
 30
0.0
 40
0
 41
0
  0
VERTEX
  8
0
 10
3.82438
 20
4.38325
 30
0.0
 40
0
 41
0
  0
VERTEX
  8
0
 10
3.7416
 20
4.25151
 30
0.0
 40
0
 41
0
  0
VERTEX
  8
0
 10
3.64757
 20
4.12554
 30
0.0
 40
0
 41
0
  0
VERTEX
  8
0
 10
3.5466
 20
4.00185
 30
0.0
 40
0
 41
0
  0
VERTEX
  8
0
 10
3.44314
 20
3.87674
 30
0.0
 40
0
 41
0
  0
VERTEX
  8
0
 10
3.34153
 20
3.74664
 30
0.0
 40
0
 41
0
  0
VERTEX
  8
0
 10
3.89274
 20
3.88439
 30
0.0
 40
0
 41
0
  0
VERTEX
  8
0
 10
4.06494
 20
3.53993
 30
0.0
 40
0
 41
0
  0
VERTEX
  8
0
 10
3.82503
 20
3.55328
 30
0.0
 40
0
 41
0
  0
VERTEX
  8
0
 10
3.59033
 20
3.5919
 30
0.0
 40
0
 41
0
  0
VERTEX
  8
0
 10
3.3604
 20
3.6544
 30
0.0
 40
0
 41
0
  0
VERTEX
  8
0
 10
3.13482
 20
3.73931
 30
0.0
 40
0
 41
0
  0
VERTEX
  8
0
 10
3.04075
 20
3.79497
 30
0.0
 40
0
 41
0
  0
VERTEX
  8
0
 10
2.94472
 20
3.86719
 30
0.0
 40
0
 41
0
  0
VERTEX
  8
0
 10
2.84754
 20
3.93283
 30
0.0
 40
0
 41
0
  0
VERTEX
  8
0
 10
2.75006
 20
3.96886
 30
0.0
 40
0
 41
0
  0
VERTEX
  8
0
 10
2.64469
 20
3.95449
 30
0.0
 40
0
 41
0
  0
VERTEX
  8
0
 10
2.5294
 20
3.90278
 30
0.0
 40
0
 41
0
  0
VERTEX
  8
0
 10
2.41396
 20
3.84125
 30
0.0
 40
0
 41
0
  0
VERTEX
  8
0
 10
2.30806
 20
3.79758
 30
0.0
 40
0
 41
0
  0
VERTEX
  8
0
 10
2.05117
 20
3.74621
 30
0.0
 40
0
 41
0
  0
VERTEX
  8
0
 10
1.7889
 20
3.72749
 30
0.0
 40
0
 41
0
  0
VERTEX
  8
0
 10
1.52783
 20
3.74744
 30
0.0
 40
0
 41
0
  0
VERTEX
  8
0
 10
1.27463
 20
3.81222
 30
0.0
 40
0
 41
0
  0
VERTEX
  8
0
 10
1.21354
 20
3.84056
 30
0.0
 40
0
 41
0
  0
VERTEX
  8
0
 10
1.15082
 20
3.88113
 30
0.0
 40
0
 41
0
  0
VERTEX
  8
0
 10
1.08816
 20
3.93218
 30
0.0
 40
0
 41
0
  0
VERTEX
  8
0
 10
1.02729
 20
3.99192
 30
0.0
 40
0
 41
0
  0
VERTEX
  8
0
 10
0.969943
 20
4.05838
 30
0.0
 40
0
 41
0
  0
VERTEX
  8
0
 10
0.91786
 20
4.12983
 30
0.0
 40
0
 41
0
  0
VERTEX
  8
0
 10
0.872721
 20
4.20437
 30
0.0
 40
0
 41
0
  0
VERTEX
  8
0
 10
0.836372
 20
4.28017
 30
0.0
 40
0
 41
0
  0
VERTEX
  8
0
 10
0.810439
 20
4.35536
 30
0.0
 40
0
 41
0
  0
VERTEX
  8
0
 10
0.796767
 20
4.42817
 30
0.0
 40
0
 41
0
  0
VERTEX
  8
0
 10
0.796983
 20
4.49675
 30
0.0
 40
0
 41
0
  0
VERTEX
  8
0
 10
0.812879
 20
4.55919
 30
0.0
 40
0
 41
0
  0
VERTEX
  8
0
 10
0.846192
 20
4.61372
 30
0.0
 40
0
 41
0
  0
VERTEX
  8
0
 10
0.898654
 20
4.65842
 30
0.0
 40
0
 41
0
  0
VERTEX
  8
0
 10
0.971951
 20
4.69151
 30
0.0
 40
0
 41
0
  0
VERTEX
  8
0
 10
1.06793
 20
4.71115
 30
0.0
 40
0
 41
0
  0
VERTEX
  8
0
 10
1.05941
 20
4.54536
 30
0.0
 40
0
 41
0
  0
VERTEX
  8
0
 10
1.05279
 20
4.37782
 30
0.0
 40
0
 41
0
  0
VERTEX
  8
0
 10
1.07498
 20
4.21664
 30
0.0
 40
0
 41
0
  0
VERTEX
  8
0
 10
1.15305
 20
4.06972
 30
0.0
 40
0
 41
0
  0
VERTEX
  8
0
 10
1.23383
 20
3.9916
 30
0.0
 40
0
 41
0
  0
VERTEX
  8
0
 10
1.3278
 20
3.93175
 30
0.0
 40
0
 41
0
  0
VERTEX
  8
0
 10
1.43283
 20
3.88911
 30
0.0
 40
0
 41
0
  0
VERTEX
  8
0
 10
1.54665
 20
3.86274
 30
0.0
 40
0
 41
0
  0
VERTEX
  8
0
 10
1.66721
 20
3.85151
 30
0.0
 40
0
 41
0
  0
VERTEX
  8
0
 10
1.79221
 20
3.85444
 30
0.0
 40
0
 41
0
  0
VERTEX
  8
0
 10
1.91949
 20
3.87056
 30
0.0
 40
0
 41
0
  0
VERTEX
  8
0
 10
2.04693
 20
3.89871
 30
0.0
 40
0
 41
0
  0
VERTEX
  8
0
 10
2.17236
 20
3.93793
 30
0.0
 40
0
 41
0
  0
VERTEX
  8
0
 10
2.29357
 20
3.98719
 30
0.0
 40
0
 41
0
  0
VERTEX
  8
0
 10
2.40836
 20
4.04546
 30
0.0
 40
0
 41
0
  0
VERTEX
  8
0
 10
2.5146
 20
4.11171
 30
0.0
 40
0
 41
0
  0
VERTEX
  8
0
 10
2.61008
 20
4.18485
 30
0.0
 40
0
 41
0
  0
VERTEX
  8
0
 10
2.69271
 20
4.26389
 30
0.0
 40
0
 41
0
  0
VERTEX
  8
0
 10
2.76019
 20
4.34787
 30
0.0
 40
0
 41
0
  0
VERTEX
  8
0
 10
2.81044
 20
4.4356
 30
0.0
 40
0
 41
0
  0
VERTEX
  8
0
 10
2.85069
 20
4.55208
 30
0.0
 40
0
 41
0
  0
VERTEX
  8
0
 10
2.86692
 20
4.66694
 30
0.0
 40
0
 41
0
  0
VERTEX
  8
0
 10
2.86317
 20
4.78039
 30
0.0
 40
0
 41
0
  0
VERTEX
  8
0
 10
2.84353
 20
4.89253
 30
0.0
 40
0
 41
0
  0
VERTEX
  8
0
 10
2.81207
 20
5.00353
 30
0.0
 40
0
 41
0
  0
VERTEX
  8
0
 10
2.77274
 20
5.11356
 30
0.0
 40
0
 41
0
  0
VERTEX
  8
0
 10
2.72971
 20
5.22276
 30
0.0
 40
0
 41
0
  0
VERTEX
  8
0
 10
2.68701
 20
5.33128
 30
0.0
 40
0
 41
0
  0
VERTEX
  8
0
 10
2.8144
 20
5.3279
 30
0.0
 40
0
 41
0
  0
VERTEX
  8
0
 10
2.90944
 20
5.27235
 30
0.0
 40
0
 41
0
  0
VERTEX
  8
0
 10
2.98003
 20
5.17768
 30
0.0
 40
0
 41
0
  0
VERTEX
  8
0
 10
3.03386
 20
5.05686
 30
0.0
 40
0
 41
0
  0
VERTEX
  8
0
 10
3.07878
 20
4.92301
 30
0.0
 40
0
 41
0
  0
VERTEX
  8
0
 10
3.12261
 20
4.78917
 30
0.0
 40
0
 41
0
  0
VERTEX
  8
0
 10
3.17312
 20
4.66829
 30
0.0
 40
0
 41
0
  0
VERTEX
  8
0
 10
3.23817
 20
4.5734
 30
0.0
 40
0
 41
0
  0
VERTEX
  8
0
 10
3.16618
 20
4.80908
 30
0.0
 40
0
 41
0
  0
VERTEX
  8
0
 10
3.088
 20
5.03558
 30
0.0
 40
0
 41
0
  0
VERTEX
  8
0
 10
2.98156
 20
5.24636
 30
0.0
 40
0
 41
0
  0
VERTEX
  8
0
 10
2.82482
 20
5.43463
 30
0.0
 40
0
 41
0
  0
VERTEX
  8
0
 10
2.82482
 20
5.46907
 30
0.0
 40
0
 41
0
  0
VERTEX
  8
0
 10
2.96175
 20
5.66319
 30
0.0
 40
0
 41
0
  0
VERTEX
  8
0
 10
3.05826
 20
5.87175
 30
0.0
 40
0
 41
0
  0
VERTEX
  8
0
 10
3.11556
 20
6.09424
 30
0.0
 40
0
 41
0
  0
VERTEX
  8
0
 10
3.13482
 20
6.33029
 30
0.0
 40
0
 41
0
  0
VERTEX
  8
0
 10
3.65158
 20
6.39914
 30
0.0
 40
0
 41
0
  0
VERTEX
  8
0
 10
3.62283
 20
6.50049
 30
0.0
 40
0
 41
0
  0
VERTEX
  8
0
 10
3.59056
 20
6.6014
 30
0.0
 40
0
 41
0
  0
VERTEX
  8
0
 10
3.55257
 20
6.69928
 30
0.0
 40
0
 41
0
  0
VERTEX
  8
0
 10
3.50683
 20
6.79161
 30
0.0
 40
0
 41
0
  0
VERTEX
  8
0
 10
3.45117
 20
6.87582
 30
0.0
 40
0
 41
0
  0
VERTEX
  8
0
 10
3.38351
 20
6.94933
 30
0.0
 40
0
 41
0
  0
VERTEX
  8
0
 10
3.30171
 20
7.0095
 30
0.0
 40
0
 41
0
  0
VERTEX
  8
0
 10
3.20372
 20
7.05371
 30
0.0
 40
0
 41
0
  0
VERTEX
  8
0
 10
3.27067
 20
6.92367
 30
0.0
 40
0
 41
0
  0
VERTEX
  8
0
 10
3.28478
 20
6.79997
 30
0.0
 40
0
 41
0
  0
VERTEX
  8
0
 10
3.25836
 20
6.67399
 30
0.0
 40
0
 41
0
  0
VERTEX
  8
0
 10
3.20372
 20
6.53694
 30
0.0
 40
0
 41
0
  0
VERTEX
  8
0
 10
3.13482
 20
6.53694
 30
0.0
 40
0
 41
0
  0
VERTEX
  8
0
 10
2.75592
 20
7.19151
 30
0.0
 40
0
 41
0
  0
VERTEX
  8
0
 10
3.20372
 20
7.29482
 30
0.0
 40
0
 41
0
  0
SEQEND
 8
0
  0
POLYLINE
  8
0
 62
     0
 66
     1
 10
0
 20
0
 30
0.0
 40
0
 41
0
  0
VERTEX
  8
0
 10
0.826768
 20
7.22597
 30
0.0
 40
0
 41
0
  0
VERTEX
  8
0
 10
0.892307
 20
7.05528
 30
0.0
 40
0
 41
0
  0
VERTEX
  8
0
 10
0.925347
 20
6.88346
 30
0.0
 40
0
 41
0
  0
VERTEX
  8
0
 10
0.917751
 20
6.71067
 30
0.0
 40
0
 41
0
  0
VERTEX
  8
0
 10
0.861219
 20
6.53694
 30
0.0
 40
0
 41
0
  0
VERTEX
  8
0
 10
0.826768
 20
6.53694
 30
0.0
 40
0
 41
0
  0
VERTEX
  8
0
 10
0.826768
 20
7.22597
 30
0.0
 40
0
 41
0
  0
SEQEND
 8
0
  0
POLYLINE
  8
0
 62
     0
 66
     1
 10
0
 20
0
 30
0.0
 40
0
 41
0
  0
VERTEX
  8
0
 10
2.79036
 20
6.36475
 30
0.0
 40
0
 41
0
  0
VERTEX
  8
0
 10
2.77203
 20
6.16396
 30
0.0
 40
0
 41
0
  0
VERTEX
  8
0
 10
2.72163
 20
5.98747
 30
0.0
 40
0
 41
0
  0
VERTEX
  8
0
 10
2.64524
 20
5.81879
 30
0.0
 40
0
 41
0
  0
VERTEX
  8
0
 10
2.54921
 20
5.64128
 30
0.0
 40
0
 41
0
  0
VERTEX
  8
0
 10
2.4114
 20
5.67572
 30
0.0
 40
0
 41
0
  0
VERTEX
  8
0
 10
2.30806
 20
5.50353
 30
0.0
 40
0
 41
0
  0
VERTEX
  8
0
 10
2.27311
 20
5.53651
 30
0.0
 40
0
 41
0
  0
VERTEX
  8
0
 10
2.22771
 20
5.57183
 30
0.0
 40
0
 41
0
  0
VERTEX
  8
0
 10
2.17344
 20
5.60818
 30
0.0
 40
0
 41
0
  0
VERTEX
  8
0
 10
2.11197
 20
5.64426
 30
0.0
 40
0
 41
0
  0
VERTEX
  8
0
 10
2.04492
 20
5.67876
 30
0.0
 40
0
 41
0
  0
VERTEX
  8
0
 10
1.97396
 20
5.71035
 30
0.0
 40
0
 41
0
  0
VERTEX
  8
0
 10
1.90072
 20
5.73763
 30
0.0
 40
0
 41
0
  0
VERTEX
  8
0
 10
1.82682
 20
5.75933
 30
0.0
 40
0
 41
0
  0
VERTEX
  8
0
 10
1.7539
 20
5.77408
 30
0.0
 40
0
 41
0
  0
VERTEX
  8
0
 10
1.6836
 20
5.7806
 30
0.0
 40
0
 41
0
  0
VERTEX
  8
0
 10
1.61757
 20
5.77756
 30
0.0
 40
0
 41
0
  0
VERTEX
  8
0
 10
1.55751
 20
5.76357
 30
0.0
 40
0
 41
0
  0
VERTEX
  8
0
 10
1.50493
 20
5.73736
 30
0.0
 40
0
 41
0
  0
VERTEX
  8
0
 10
1.46158
 20
5.69754
 30
0.0
 40
0
 41
0
  0
VERTEX
  8
0
 10
1.42904
 20
5.64285
 30
0.0
 40
0
 41
0
  0
VERTEX
  8
0
 10
1.40901
 20
5.57189
 30
0.0
 40
0
 41
0
  0
VERTEX
  8
0
 10
1.41135
 20
5.50424
 30
0.0
 40
0
 41
0
  0
VERTEX
  8
0
 10
1.43201
 20
5.43317
 30
0.0
 40
0
 41
0
  0
VERTEX
  8
0
 10
1.45925
 20
5.36274
 30
0.0
 40
0
 41
0
  0
VERTEX
  8
0
 10
1.48128
 20
5.29682
 30
0.0
 40
0
 41
0
  0
VERTEX
  8
0
 10
1.38639
 20
5.35351
 30
0.0
 40
0
 41
0
  0
VERTEX
  8
0
 10
1.31706
 20
5.42589
 30
0.0
 40
0
 41
0
  0
VERTEX
  8
0
 10
1.27414
 20
5.50857
 30
0.0
 40
0
 41
0
  0
VERTEX
  8
0
 10
1.25846
 20
5.59619
 30
0.0
 40
0
 41
0
  0
VERTEX
  8
0
 10
1.27105
 20
5.68332
 30
0.0
 40
0
 41
0
  0
VERTEX
  8
0
 10
1.31277
 20
5.76454
 30
0.0
 40
0
 41
0
  0
VERTEX
  8
0
 10
1.38449
 20
5.83442
 30
0.0
 40
0
 41
0
  0
VERTEX
  8
0
 10
1.48719
 20
5.88758
 30
0.0
 40
0
 41
0
  0
VERTEX
  8
0
 10
1.66753
 20
5.92117
 30
0.0
 40
0
 41
0
  0
VERTEX
  8
0
 10
1.84928
 20
5.90603
 30
0.0
 40
0
 41
0
  0
VERTEX
  8
0
 10
2.02935
 20
5.86317
 30
0.0
 40
0
 41
0
  0
VERTEX
  8
0
 10
2.20469
 20
5.81353
 30
0.0
 40
0
 41
0
  0
VERTEX
  8
0
 10
2.20469
 20
5.84799
 30
0.0
 40
0
 41
0
  0
VERTEX
  8
0
 10
1.79135
 20
5.95133
 30
0.0
 40
0
 41
0
  0
VERTEX
  8
0
 10
1.82835
 20
6.28282
 30
0.0
 40
0
 41
0
  0
VERTEX
  8
0
 10
1.91743
 20
6.59717
 30
0.0
 40
0
 41
0
  0
VERTEX
  8
0
 10
2.04682
 20
6.8986
 30
0.0
 40
0
 41
0
  0
VERTEX
  8
0
 10
2.20469
 20
7.19151
 30
0.0
 40
0
 41
0
  0
VERTEX
  8
0
 10
2.31646
 20
7.14225
 30
0.0
 40
0
 41
0
  0
VERTEX
  8
0
 10
2.39219
 20
7.05681
 30
0.0
 40
0
 41
0
  0
VERTEX
  8
0
 10
2.44439
 20
6.94553
 30
0.0
 40
0
 41
0
  0
VERTEX
  8
0
 10
2.48551
 20
6.81874
 30
0.0
 40
0
 41
0
  0
VERTEX
  8
0
 10
2.52815
 20
6.68696
 30
0.0
 40
0
 41
0
  0
VERTEX
  8
0
 10
2.58479
 20
6.56044
 30
0.0
 40
0
 41
0
  0
VERTEX
  8
0
 10
2.66803
 20
6.4496
 30
0.0
 40
0
 41
0
  0
VERTEX
  8
0
 10
2.79036
 20
6.36475
 30
0.0
 40
0
 41
0
  0
SEQEND
 8
0
  0
POLYLINE
  8
0
 62
     0
 66
     1
 10
0
 20
0
 30
0.0
 40
0
 41
0
  0
VERTEX
  8
0
 10
2.75592
 20
7.12261
 30
0.0
 40
0
 41
0
  0
VERTEX
  8
0
 10
2.88628
 20
6.94906
 30
0.0
 40
0
 41
0
  0
VERTEX
  8
0
 10
2.98856
 20
6.75558
 30
0.0
 40
0
 41
0
  0
VERTEX
  8
0
 10
3.05931
 20
6.54856
 30
0.0
 40
0
 41
0
  0
VERTEX
  8
0
 10
3.09521
 20
6.33419
 30
0.0
 40
0
 41
0
  0
VERTEX
  8
0
 10
3.09299
 20
6.11882
 30
0.0
 40
0
 41
0
  0
VERTEX
  8
0
 10
3.04926
 20
5.90864
 30
0.0
 40
0
 41
0
  0
VERTEX
  8
0
 10
2.96078
 20
5.71007
 30
0.0
 40
0
 41
0
  0
VERTEX
  8
0
 10
2.82417
 20
5.52929
 30
0.0
 40
0
 41
0
  0
VERTEX
  8
0
 10
2.78483
 20
5.49149
 30
0.0
 40
0
 41
0
  0
VERTEX
  8
0
 10
2.73654
 20
5.45079
 30
0.0
 40
0
 41
0
  0
VERTEX
  8
0
 10
2.6805
 20
5.40858
 30
0.0
 40
0
 41
0
  0
VERTEX
  8
0
 10
2.61811
 20
5.36626
 30
0.0
 40
0
 41
0
  0
VERTEX
  8
0
 10
2.55067
 20
5.32508
 30
0.0
 40
0
 41
0
  0
VERTEX
  8
0
 10
2.47954
 20
5.2864
 30
0.0
 40
0
 41
0
  0
VERTEX
  8
0
 10
2.40608
 20
5.25157
 30
0.0
 40
0
 41
0
  0
VERTEX
  8
0
 10
2.3316
 20
5.22194
 30
0.0
 40
0
 41
0
  0
VERTEX
  8
0
 10
2.25743
 20
5.19878
 30
0.0
 40
0
 41
0
  0
VERTEX
  8
0
 10
2.18494
 20
5.18349
 30
0.0
 40
0
 41
0
  0
VERTEX
  8
0
 10
2.1155
 20
5.1774
 30
0.0
 40
0
 41
0
  0
VERTEX
  8
0
 10
2.0504
 20
5.18181
 30
0.0
 40
0
 41
0
  0
VERTEX
  8
0
 10
1.991
 20
5.19808
 30
0.0
 40
0
 41
0
  0
VERTEX
  8
0
 10
1.93858
 20
5.22749
 30
0.0
 40
0
 41
0
  0
VERTEX
  8
0
 10
1.89453
 20
5.27149
 30
0.0
 40
0
 41
0
  0
VERTEX
  8
0
 10
1.86025
 20
5.33128
 30
0.0
 40
0
 41
0
  0
VERTEX
  8
0
 10
2.06506
 20
5.36057
 30
0.0
 40
0
 41
0
  0
VERTEX
  8
0
 10
2.25825
 20
5.42746
 30
0.0
 40
0
 41
0
  0
VERTEX
  8
0
 10
2.43408
 20
5.5281
 30
0.0
 40
0
 41
0
  0
VERTEX
  8
0
 10
2.58681
 20
5.65847
 30
0.0
 40
0
 41
0
  0
VERTEX
  8
0
 10
2.71083
 20
5.81472
 30
0.0
 40
0
 41
0
  0
VERTEX
  8
0
 10
2.80035
 20
5.99289
 30
0.0
 40
0
 41
0
  0
VERTEX
  8
0
 10
2.84978
 20
6.18901
 30
0.0
 40
0
 41
0
  0
VERTEX
  8
0
 10
2.85335
 20
6.39914
 30
0.0
 40
0
 41
0
  0
VERTEX
  8
0
 10
2.83632
 20
6.48981
 30
0.0
 40
0
 41
0
  0
VERTEX
  8
0
 10
2.8074
 20
6.58231
 30
0.0
 40
0
 41
0
  0
VERTEX
  8
0
 10
2.77317
 20
6.67562
 30
0.0
 40
0
 41
0
  0
VERTEX
  8
0
 10
2.74029
 20
6.76893
 30
0.0
 40
0
 41
0
  0
VERTEX
  8
0
 10
2.7155
 20
6.86122
 30
0.0
 40
0
 41
0
  0
VERTEX
  8
0
 10
2.70535
 20
6.95156
 30
0.0
 40
0
 41
0
  0
VERTEX
  8
0
 10
2.71658
 20
7.03901
 30
0.0
 40
0
 41
0
  0
VERTEX
  8
0
 10
2.75592
 20
7.12261
 30
0.0
 40
0
 41
0
  0
SEQEND
 8
0
  0
POLYLINE
  8
0
 62
     0
 66
     1
 10
0
 20
0
 30
0.0
 40
0
 41
0
  0
VERTEX
  8
0
 10
5.92518
 20
7.08817
 30
0.0
 40
0
 41
0
  0
VERTEX
  8
0
 10
5.97558
 20
6.96419
 30
0.0
 40
0
 41
0
  0
VERTEX
  8
0
 10
6.02989
 20
6.8349
 30
0.0
 40
0
 41
0
  0
VERTEX
  8
0
 10
6.08322
 20
6.70171
 30
0.0
 40
0
 41
0
  0
VERTEX
  8
0
 10
6.13069
 20
6.56575
 30
0.0
 40
0
 41
0
  0
VERTEX
  8
0
 10
6.16758
 20
6.42839
 30
0.0
 40
0
 41
0
  0
VERTEX
  8
0
 10
6.18907
 20
6.29085
 30
0.0
 40
0
 41
0
  0
VERTEX
  8
0
 10
6.19021
 20
6.15435
 30
0.0
 40
0
 41
0
  0
VERTEX
  8
0
 10
6.16635
 20
6.02024
 30
0.0
 40
0
 41
0
  0
VERTEX
  8
0
 10
6.10547
 20
6.11871
 30
0.0
 40
0
 41
0
  0
VERTEX
  8
0
 10
6.04785
 20
6.24197
 30
0.0
 40
0
 41
0
  0
VERTEX
  8
0
 10
5.99442
 20
6.38271
 30
0.0
 40
0
 41
0
  0
VERTEX
  8
0
 10
5.94601
 20
6.53347
 30
0.0
 40
0
 41
0
  0
VERTEX
  8
0
 10
5.90364
 20
6.68685
 30
0.0
 40
0
 41
0
  0
VERTEX
  8
0
 10
5.86822
 20
6.83535
 30
0.0
 40
0
 41
0
  0
VERTEX
  8
0
 10
5.8406
 20
6.97163
 30
0.0
 40
0
 41
0
  0
VERTEX
  8
0
 10
5.82183
 20
7.08817
 30
0.0
 40
0
 41
0
  0
VERTEX
  8
0
 10
5.92518
 20
7.08817
 30
0.0
 40
0
 41
0
  0
SEQEND
 8
0
  0
POLYLINE
  8
0
 62
     0
 66
     1
 10
0
 20
0
 30
0.0
 40
0
 41
0
  0
VERTEX
  8
0
 10
1.20573
 20
6.81256
 30
0.0
 40
0
 41
0
  0
VERTEX
  8
0
 10
1.55018
 20
6.5714
 30
0.0
 40
0
 41
0
  0
VERTEX
  8
0
 10
1.48128
 20
5.91689
 30
0.0
 40
0
 41
0
  0
VERTEX
  8
0
 10
1.17128
 20
5.67572
 30
0.0
 40
0
 41
0
  0
VERTEX
  8
0
 10
1.10748
 20
5.80214
 30
0.0
 40
0
 41
0
  0
VERTEX
  8
0
 10
1.06532
 20
5.94157
 30
0.0
 40
0
 41
0
  0
VERTEX
  8
0
 10
1.04362
 20
6.08968
 30
0.0
 40
0
 41
0
  0
VERTEX
  8
0
 10
1.04145
 20
6.24235
 30
0.0
 40
0
 41
0
  0
VERTEX
  8
0
 10
1.05762
 20
6.39518
 30
0.0
 40
0
 41
0
  0
VERTEX
  8
0
 10
1.09109
 20
6.544
 30
0.0
 40
0
 41
0
  0
VERTEX
  8
0
 10
1.14084
 20
6.68457
 30
0.0
 40
0
 41
0
  0
VERTEX
  8
0
 10
1.20573
 20
6.81256
 30
0.0
 40
0
 41
0
  0
SEQEND
 8
0
  0
POLYLINE
  8
0
 62
     0
 66
     1
 10
0
 20
0
 30
0.0
 40
0
 41
0
  0
VERTEX
  8
0
 10
2.72146
 20
6.74365
 30
0.0
 40
0
 41
0
  0
VERTEX
  8
0
 10
2.72146
 20
6.64031
 30
0.0
 40
0
 41
0
  0
VERTEX
  8
0
 10
2.68701
 20
6.64031
 30
0.0
 40
0
 41
0
  0
VERTEX
  8
0
 10
2.72146
 20
6.74365
 30
0.0
 40
0
 41
0
  0
SEQEND
 8
0
  0
POLYLINE
  8
0
 62
     0
 66
     1
 10
0
 20
0
 30
0.0
 40
0
 41
0
  0
VERTEX
  8
0
 10
3.96158
 20
6.19249
 30
0.0
 40
0
 41
0
  0
VERTEX
  8
0
 10
3.96158
 20
5.91689
 30
0.0
 40
0
 41
0
  0
VERTEX
  8
0
 10
3.86367
 20
5.85628
 30
0.0
 40
0
 41
0
  0
VERTEX
  8
0
 10
3.79833
 20
5.78396
 30
0.0
 40
0
 41
0
  0
VERTEX
  8
0
 10
3.76383
 20
5.70394
 30
0.0
 40
0
 41
0
  0
VERTEX
  8
0
 10
3.75857
 20
5.62033
 30
0.0
 40
0
 41
0
  0
VERTEX
  8
0
 10
3.78082
 20
5.53722
 30
0.0
 40
0
 41
0
  0
VERTEX
  8
0
 10
3.82889
 20
5.45865
 30
0.0
 40
0
 41
0
  0
VERTEX
  8
0
 10
3.90121
 20
5.38861
 30
0.0
 40
0
 41
0
  0
VERTEX
  8
0
 10
3.99604
 20
5.33128
 30
0.0
 40
0
 41
0
  0
VERTEX
  8
0
 10
3.99604
 20
5.05567
 30
0.0
 40
0
 41
0
  0
VERTEX
  8
0
 10
3.83024
 20
5.08361
 30
0.0
 40
0
 41
0
  0
VERTEX
  8
0
 10
3.70768
 20
5.14333
 30
0.0
 40
0
 41
0
  0
VERTEX
  8
0
 10
3.62299
 20
5.22965
 30
0.0
 40
0
 41
0
  0
VERTEX
  8
0
 10
3.5709
 20
5.33757
 30
0.0
 40
0
 41
0
  0
VERTEX
  8
0
 10
3.54617
 20
5.46186
 30
0.0
 40
0
 41
0
  0
VERTEX
  8
0
 10
3.5434
 20
5.59754
 30
0.0
 40
0
 41
0
  0
VERTEX
  8
0
 10
3.55729
 20
5.73942
 30
0.0
 40
0
 41
0
  0
VERTEX
  8
0
 10
3.58268
 20
5.88243
 30
0.0
 40
0
 41
0
  0
VERTEX
  8
0
 10
3.54824
 20
5.88243
 30
0.0
 40
0
 41
0
  0
VERTEX
  8
0
 10
3.44488
 20
5.67572
 30
0.0
 40
0
 41
0
  0
VERTEX
  8
0
 10
3.41938
 20
5.78857
 30
0.0
 40
0
 41
0
  0
VERTEX
  8
0
 10
3.43494
 20
5.88797
 30
0.0
 40
0
 41
0
  0
VERTEX
  8
0
 10
3.484
 20
5.97374
 30
0.0
 40
0
 41
0
  0
VERTEX
  8
0
 10
3.55875
 20
6.04574
 30
0.0
 40
0
 41
0
  0
VERTEX
  8
0
 10
3.65158
 20
6.10379
 30
0.0
 40
0
 41
0
  0
VERTEX
  8
0
 10
3.75478
 20
6.14774
 30
0.0
 40
0
 41
0
  0
VERTEX
  8
0
 10
3.86068
 20
6.17736
 30
0.0
 40
0
 41
0
  0
VERTEX
  8
0
 10
3.96158
 20
6.19249
 30
0.0
 40
0
 41
0
  0
SEQEND
 8
0
  0
POLYLINE
  8
0
 62
     0
 66
     1
 10
0
 20
0
 30
0.0
 40
0
 41
0
  0
VERTEX
  8
0
 10
4.13385
 20
5.43463
 30
0.0
 40
0
 41
0
  0
VERTEX
  8
0
 10
4.16829
 20
5.74463
 30
0.0
 40
0
 41
0
  0
VERTEX
  8
0
 10
4.375
 20
5.77908
 30
0.0
 40
0
 41
0
  0
VERTEX
  8
0
 10
4.375
 20
5.88243
 30
0.0
 40
0
 41
0
  0
VERTEX
  8
0
 10
4.26888
 20
5.92882
 30
0.0
 40
0
 41
0
  0
VERTEX
  8
0
 10
4.2066
 20
5.99154
 30
0.0
 40
0
 41
0
  0
VERTEX
  8
0
 10
4.17676
 20
6.07721
 30
0.0
 40
0
 41
0
  0
VERTEX
  8
0
 10
4.16829
 20
6.19249
 30
0.0
 40
0
 41
0
  0
VERTEX
  8
0
 10
4.23112
 20
6.18593
 30
0.0
 40
0
 41
0
  0
VERTEX
  8
0
 10
4.30003
 20
6.17176
 30
0.0
 40
0
 41
0
  0
VERTEX
  8
0
 10
4.37272
 20
6.15061
 30
0.0
 40
0
 41
0
  0
VERTEX
  8
0
 10
4.447
 20
6.12304
 30
0.0
 40
0
 41
0
  0
VERTEX
  8
0
 10
4.52067
 20
6.08957
 30
0.0
 40
0
 41
0
  0
VERTEX
  8
0
 10
4.59142
 20
6.05089
 30
0.0
 40
0
 41
0
  0
VERTEX
  8
0
 10
4.65711
 20
6.00754
 30
0.0
 40
0
 41
0
  0
VERTEX
  8
0
 10
4.71544
 20
5.96013
 30
0.0
 40
0
 41
0
  0
VERTEX
  8
0
 10
4.76417
 20
5.90918
 30
0.0
 40
0
 41
0
  0
VERTEX
  8
0
 10
4.80117
 20
5.85531
 30
0.0
 40
0
 41
0
  0
VERTEX
  8
0
 10
4.82406
 20
5.79915
 30
0.0
 40
0
 41
0
  0
VERTEX
  8
0
 10
4.83068
 20
5.74121
 30
0.0
 40
0
 41
0
  0
VERTEX
  8
0
 10
4.81885
 20
5.68213
 30
0.0
 40
0
 41
0
  0
VERTEX
  8
0
 10
4.78624
 20
5.6225
 30
0.0
 40
0
 41
0
  0
VERTEX
  8
0
 10
4.73068
 20
5.56288
 30
0.0
 40
0
 41
0
  0
VERTEX
  8
0
 10
4.64996
 20
5.50379
 30
0.0
 40
0
 41
0
  0
VERTEX
  8
0
 10
4.52929
 20
5.45318
 30
0.0
 40
0
 41
0
  0
VERTEX
  8
0
 10
4.39899
 20
5.43381
 30
0.0
 40
0
 41
0
  0
VERTEX
  8
0
 10
4.26514
 20
5.43218
 30
0.0
 40
0
 41
0
  0
VERTEX
  8
0
 10
4.13385
 20
5.43463
 30
0.0
 40
0
 41
0
  0
SEQEND
 8
0
  0
POLYLINE
  8
0
 62
     0
 66
     1
 10
0
 20
0
 30
0.0
 40
0
 41
0
  0
VERTEX
  8
0
 10
6.20079
 20
5.98579
 30
0.0
 40
0
 41
0
  0
VERTEX
  8
0
 10
6.09744
 20
5.77908
 30
0.0
 40
0
 41
0
  0
VERTEX
  8
0
 10
6.20079
 20
5.98579
 30
0.0
 40
0
 41
0
  0
SEQEND
 8
0
  0
POLYLINE
  8
0
 62
     0
 66
     1
 10
0
 20
0
 30
0.0
 40
0
 41
0
  0
VERTEX
  8
0
 10
6.61415
 20
5.91689
 30
0.0
 40
0
 41
0
  0
VERTEX
  8
0
 10
6.69407
 20
5.88026
 30
0.0
 40
0
 41
0
  0
VERTEX
  8
0
 10
6.74962
 20
5.84082
 30
0.0
 40
0
 41
0
  0
VERTEX
  8
0
 10
6.78097
 20
5.80024
 30
0.0
 40
0
 41
0
  0
VERTEX
  8
0
 10
6.78819
 20
5.76025
 30
0.0
 40
0
 41
0
  0
VERTEX
  8
0
 10
6.77154
 20
5.72265
 30
0.0
 40
0
 41
0
  0
VERTEX
  8
0
 10
6.73112
 20
5.68918
 30
0.0
 40
0
 41
0
  0
VERTEX
  8
0
 10
6.6671
 20
5.66146
 30
0.0
 40
0
 41
0
  0
VERTEX
  8
0
 10
6.57969
 20
5.64128
 30
0.0
 40
0
 41
0
  0
VERTEX
  8
0
 10
6.61415
 20
5.91689
 30
0.0
 40
0
 41
0
  0
SEQEND
 8
0
  0
POLYLINE
  8
0
 62
     0
 66
     1
 10
0
 20
0
 30
0.0
 40
0
 41
0
  0
VERTEX
  8
0
 10
4.20275
 20
5.84799
 30
0.0
 40
0
 41
0
  0
VERTEX
  8
0
 10
4.16829
 20
5.81353
 30
0.0
 40
0
 41
0
  0
VERTEX
  8
0
 10
4.20275
 20
5.84799
 30
0.0
 40
0
 41
0
  0
SEQEND
 8
0
  0
POLYLINE
  8
0
 62
     0
 66
     1
 10
0
 20
0
 30
0.0
 40
0
 41
0
  0
VERTEX
  8
0
 10
0.723415
 20
5.81353
 30
0.0
 40
0
 41
0
  0
VERTEX
  8
0
 10
0.712349
 20
5.70589
 30
0.0
 40
0
 41
0
  0
VERTEX
  8
0
 10
0.683485
 20
5.61794
 30
0.0
 40
0
 41
0
  0
VERTEX
  8
0
 10
0.63151
 20
5.54167
 30
0.0
 40
0
 41
0
  0
VERTEX
  8
0
 10
0.551161
 20
5.46907
 30
0.0
 40
0
 41
0
  0
VERTEX
  8
0
 10
0.527507
 20
5.58811
 30
0.0
 40
0
 41
0
  0
VERTEX
  8
0
 10
0.549804
 20
5.68197
 30
0.0
 40
0
 41
0
  0
VERTEX
  8
0
 10
0.615831
 20
5.75553
 30
0.0
 40
0
 41
0
  0
VERTEX
  8
0
 10
0.723415
 20
5.81353
 30
0.0
 40
0
 41
0
  0
SEQEND
 8
0
  0
POLYLINE
  8
0
 62
     0
 66
     1
 10
0
 20
0
 30
0.0
 40
0
 41
0
  0
VERTEX
  8
0
 10
2.20469
 20
5.81353
 30
0.0
 40
0
 41
0
  0
VERTEX
  8
0
 10
2.20469
 20
5.77908
 30
0.0
 40
0
 41
0
  0
VERTEX
  8
0
 10
2.4114
 20
5.67572
 30
0.0
 40
0
 41
0
  0
VERTEX
  8
0
 10
2.20469
 20
5.81353
 30
0.0
 40
0
 41
0
  0
SEQEND
 8
0
  0
POLYLINE
  8
0
 62
     0
 66
     1
 10
0
 20
0
 30
0.0
 40
0
 41
0
  0
VERTEX
  8
0
 10
3.99604
 20
5.74463
 30
0.0
 40
0
 41
0
  0
VERTEX
  8
0
 10
3.99604
 20
5.53792
 30
0.0
 40
0
 41
0
  0
VERTEX
  8
0
 10
3.96229
 20
5.55931
 30
0.0
 40
0
 41
0
  0
VERTEX
  8
0
 10
3.93707
 20
5.57969
 30
0.0
 40
0
 41
0
  0
VERTEX
  8
0
 10
3.9196
 20
5.60032
 30
0.0
 40
0
 41
0
  0
VERTEX
  8
0
 10
3.90935
 20
5.62224
 30
0.0
 40
0
 41
0
  0
VERTEX
  8
0
 10
3.9056
 20
5.64654
 30
0.0
 40
0
 41
0
  0
VERTEX
  8
0
 10
3.90771
 20
5.67432
 30
0.0
 40
0
 41
0
  0
VERTEX
  8
0
 10
3.91515
 20
5.70665
 30
0.0
 40
0
 41
0
  0
VERTEX
  8
0
 10
3.92719
 20
5.74463
 30
0.0
 40
0
 41
0
  0
VERTEX
  8
0
 10
3.99604
 20
5.74463
 30
0.0
 40
0
 41
0
  0
SEQEND
 8
0
  0
POLYLINE
  8
0
 62
     0
 66
     1
 10
0
 20
0
 30
0.0
 40
0
 41
0
  0
VERTEX
  8
0
 10
2.2736
 20
5.46907
 30
0.0
 40
0
 41
0
  0
VERTEX
  8
0
 10
1.86025
 20
5.36572
 30
0.0
 40
0
 41
0
  0
VERTEX
  8
0
 10
1.82579
 20
5.67572
 30
0.0
 40
0
 41
0
  0
VERTEX
  8
0
 10
1.95497
 20
5.65631
 30
0.0
 40
0
 41
0
  0
VERTEX
  8
0
 10
2.07249
 20
5.6186
 30
0.0
 40
0
 41
0
  0
VERTEX
  8
0
 10
2.17854
 20
5.55778
 30
0.0
 40
0
 41
0
  0
VERTEX
  8
0
 10
2.2736
 20
5.46907
 30
0.0
 40
0
 41
0
  0
SEQEND
 8
0
  0
POLYLINE
  8
0
 62
     0
 66
     1
 10
0
 20
0
 30
0.0
 40
0
 41
0
  0
VERTEX
  8
0
 10
5.44293
 20
5.60682
 30
0.0
 40
0
 41
0
  0
VERTEX
  8
0
 10
5.54628
 20
5.64128
 30
0.0
 40
0
 41
0
  0
VERTEX
  8
0
 10
5.44293
 20
5.60682
 30
0.0
 40
0
 41
0
  0
SEQEND
 8
0
  0
POLYLINE
  8
0
 62
     0
 66
     1
 10
0
 20
0
 30
0.0
 40
0
 41
0
  0
VERTEX
  8
0
 10
6.13189
 20
5.36572
 30
0.0
 40
0
 41
0
  0
VERTEX
  8
0
 10
6.0975
 20
5.11453
 30
0.0
 40
0
 41
0
  0
VERTEX
  8
0
 10
6.01243
 20
4.8846
 30
0.0
 40
0
 41
0
  0
VERTEX
  8
0
 10
5.90093
 20
4.66271
 30
0.0
 40
0
 41
0
  0
VERTEX
  8
0
 10
5.78738
 20
4.4356
 30
0.0
 40
0
 41
0
  0
VERTEX
  8
0
 10
5.71571
 20
4.48693
 30
0.0
 40
0
 41
0
  0
VERTEX
  8
0
 10
5.66211
 20
4.54611
 30
0.0
 40
0
 41
0
  0
VERTEX
  8
0
 10
5.62528
 20
4.61165
 30
0.0
 40
0
 41
0
  0
VERTEX
  8
0
 10
5.60406
 20
4.68207
 30
0.0
 40
0
 41
0
  0
VERTEX
  8
0
 10
5.59728
 20
4.75592
 30
0.0
 40
0
 41
0
  0
VERTEX
  8
0
 10
5.60368
 20
4.83165
 30
0.0
 40
0
 41
0
  0
VERTEX
  8
0
 10
5.62213
 20
4.90782
 30
0.0
 40
0
 41
0
  0
VERTEX
  8
0
 10
5.65136
 20
4.98292
 30
0.0
 40
0
 41
0
  0
VERTEX
  8
0
 10
5.69026
 20
5.05539
 30
0.0
 40
0
 41
0
  0
VERTEX
  8
0
 10
5.73763
 20
5.12386
 30
0.0
 40
0
 41
0
  0
VERTEX
  8
0
 10
5.79221
 20
5.18674
 30
0.0
 40
0
 41
0
  0
VERTEX
  8
0
 10
5.85281
 20
5.24262
 30
0.0
 40
0
 41
0
  0
VERTEX
  8
0
 10
5.91829
 20
5.28993
 30
0.0
 40
0
 41
0
  0
VERTEX
  8
0
 10
5.98742
 20
5.32721
 30
0.0
 40
0
 41
0
  0
VERTEX
  8
0
 10
6.05903
 20
5.35297
 30
0.0
 40
0
 41
0
  0
VERTEX
  8
0
 10
6.13189
 20
5.36572
 30
0.0
 40
0
 41
0
  0
SEQEND
 8
0
  0
POLYLINE
  8
0
 62
     0
 66
     1
 10
0
 20
0
 30
0.0
 40
0
 41
0
  0
VERTEX
  8
0
 10
1.9636
 20
5.09011
 30
0.0
 40
0
 41
0
  0
VERTEX
  8
0
 10
2.03733
 20
5.09885
 30
0.0
 40
0
 41
0
  0
VERTEX
  8
0
 10
2.12256
 20
5.11882
 30
0.0
 40
0
 41
0
  0
VERTEX
  8
0
 10
2.21517
 20
5.14492
 30
0.0
 40
0
 41
0
  0
VERTEX
  8
0
 10
2.31076
 20
5.17204
 30
0.0
 40
0
 41
0
  0
VERTEX
  8
0
 10
2.40522
 20
5.19515
 30
0.0
 40
0
 41
0
  0
VERTEX
  8
0
 10
2.49419
 20
5.2091
 30
0.0
 40
0
 41
0
  0
VERTEX
  8
0
 10
2.57357
 20
5.20888
 30
0.0
 40
0
 41
0
  0
VERTEX
  8
0
 10
2.639
 20
5.18929
 30
0.0
 40
0
 41
0
  0
VERTEX
  8
0
 10
2.69824
 20
5.14333
 30
0.0
 40
0
 41
0
  0
VERTEX
  8
0
 10
2.74328
 20
5.08014
 30
0.0
 40
0
 41
0
  0
VERTEX
  8
0
 10
2.77468
 20
5.00325
 30
0.0
 40
0
 41
0
  0
VERTEX
  8
0
 10
2.79335
 20
4.91635
 30
0.0
 40
0
 41
0
  0
VERTEX
  8
0
 10
2.80003
 20
4.82303
 30
0.0
 40
0
 41
0
  0
VERTEX
  8
0
 10
2.79546
 20
4.72689
 30
0.0
 40
0
 41
0
  0
VERTEX
  8
0
 10
2.78043
 20
4.63167
 30
0.0
 40
0
 41
0
  0
VERTEX
  8
0
 10
2.75575
 20
4.5409
 30
0.0
 40
0
 41
0
  0
VERTEX
  8
0
 10
2.72217
 20
4.45828
 30
0.0
 40
0
 41
0
  0
VERTEX
  8
0
 10
2.68044
 20
4.38732
 30
0.0
 40
0
 41
0
  0
VERTEX
  8
0
 10
2.63135
 20
4.33176
 30
0.0
 40
0
 41
0
  0
VERTEX
  8
0
 10
2.57563
 20
4.29519
 30
0.0
 40
0
 41
0
  0
VERTEX
  8
0
 10
2.51411
 20
4.28119
 30
0.0
 40
0
 41
0
  0
VERTEX
  8
0
 10
2.44754
 20
4.29346
 30
0.0
 40
0
 41
0
  0
VERTEX
  8
0
 10
2.37674
 20
4.33556
 30
0.0
 40
0
 41
0
  0
VERTEX
  8
0
 10
2.3024
 20
4.41114
 30
0.0
 40
0
 41
0
  0
VERTEX
  8
0
 10
2.20156
 20
4.5574
 30
0.0
 40
0
 41
0
  0
VERTEX
  8
0
 10
2.11203
 20
4.71115
 30
0.0
 40
0
 41
0
  0
VERTEX
  8
0
 10
2.01926
 20
4.89404
 30
0.0
 40
0
 41
0
  0
VERTEX
  8
0
 10
1.9636
 20
5.09011
 30
0.0
 40
0
 41
0
  0
SEQEND
 8
0
  0
POLYLINE
  8
0
 62
     0
 66
     1
 10
0
 20
0
 30
0.0
 40
0
 41
0
  0
VERTEX
  8
0
 10
7.19982
 20
3.88439
 30
0.0
 40
0
 41
0
  0
VERTEX
  8
0
 10
7.25347
 20
3.83306
 30
0.0
 40
0
 41
0
  0
VERTEX
  8
0
 10
7.30279
 20
3.78456
 30
0.0
 40
0
 41
0
  0
VERTEX
  8
0
 10
7.34603
 20
3.73682
 30
0.0
 40
0
 41
0
  0
VERTEX
  8
0
 10
7.38129
 20
3.68772
 30
0.0
 40
0
 41
0
  0
VERTEX
  8
0
 10
7.40679
 20
3.63525
 30
0.0
 40
0
 41
0
  0
VERTEX
  8
0
 10
7.42074
 20
3.57731
 30
0.0
 40
0
 41
0
  0
VERTEX
  8
0
 10
7.42122
 20
3.51178
 30
0.0
 40
0
 41
0
  0
VERTEX
  8
0
 10
7.40653
 20
3.43658
 30
0.0
 40
0
 41
0
  0
VERTEX
  8
0
 10
6.99311
 20
3.72999
 30
0.0
 40
0
 41
0
  0
VERTEX
  8
0
 10
5.82183
 20
3.91883
 30
0.0
 40
0
 41
0
  0
VERTEX
  8
0
 10
5.83649
 20
3.95535
 30
0.0
 40
0
 41
0
  0
VERTEX
  8
0
 10
5.85286
 20
3.99214
 30
0.0
 40
0
 41
0
  0
VERTEX
  8
0
 10
5.87181
 20
4.02756
 30
0.0
 40
0
 41
0
  0
VERTEX
  8
0
 10
5.89399
 20
4.06
 30
0.0
 40
0
 41
0
  0
VERTEX
  8
0
 10
5.92008
 20
4.08789
 30
0.0
 40
0
 41
0
  0
VERTEX
  8
0
 10
5.95101
 20
4.10943
 30
0.0
 40
0
 41
0
  0
VERTEX
  8
0
 10
5.98736
 20
4.12315
 30
0.0
 40
0
 41
0
  0
VERTEX
  8
0
 10
6.02994
 20
4.12722
 30
0.0
 40
0
 41
0
  0
VERTEX
  8
0
 10
6.13146
 20
4.11068
 30
0.0
 40
0
 41
0
  0
VERTEX
  8
0
 10
6.23546
 20
4.07585
 30
0.0
 40
0
 41
0
  0
VERTEX
  8
0
 10
6.33968
 20
4.03717
 30
0.0
 40
0
 41
0
  0
VERTEX
  8
0
 10
6.44194
 20
4.00896
 30
0.0
 40
0
 41
0
  0
VERTEX
  8
0
 10
6.51481
 20
3.99983
 30
0.0
 40
0
 41
0
  0
VERTEX
  8
0
 10
6.60172
 20
3.99604
 30
0.0
 40
0
 41
0
  0
VERTEX
  8
0
 10
6.69993
 20
3.99778
 30
0.0
 40
0
 41
0
  0
VERTEX
  8
0
 10
6.80664
 20
4.00543
 30
0.0
 40
0
 41
0
  0
VERTEX
  8
0
 10
6.91911
 20
4.01915
 30
0.0
 40
0
 41
0
  0
VERTEX
  8
0
 10
7.03456
 20
4.03928
 30
0.0
 40
0
 41
0
  0
VERTEX
  8
0
 10
7.15028
 20
4.06614
 30
0.0
 40
0
 41
0
  0
VERTEX
  8
0
 10
7.26346
 20
4.09988
 30
0.0
 40
0
 41
0
  0
VERTEX
  8
0
 10
7.37131
 20
4.14085
 30
0.0
 40
0
 41
0
  0
VERTEX
  8
0
 10
7.47114
 20
4.18929
 30
0.0
 40
0
 41
0
  0
VERTEX
  8
0
 10
7.56017
 20
4.24544
 30
0.0
 40
0
 41
0
  0
VERTEX
  8
0
 10
7.63564
 20
4.30968
 30
0.0
 40
0
 41
0
  0
VERTEX
  8
0
 10
7.69472
 20
4.38217
 30
0.0
 40
0
 41
0
  0
VERTEX
  8
0
 10
7.73475
 20
4.46322
 30
0.0
 40
0
 41
0
  0
VERTEX
  8
0
 10
7.75293
 20
4.55311
 30
0.0
 40
0
 41
0
  0
VERTEX
  8
0
 10
7.74647
 20
4.65207
 30
0.0
 40
0
 41
0
  0
VERTEX
  8
0
 10
7.72678
 20
4.72601
 30
0.0
 40
0
 41
0
  0
VERTEX
  8
0
 10
7.69965
 20
4.78478
 30
0.0
 40
0
 41
0
  0
VERTEX
  8
0
 10
7.66639
 20
4.8291
 30
0.0
 40
0
 41
0
  0
VERTEX
  8
0
 10
7.62836
 20
4.85986
 30
0.0
 40
0
 41
0
  0
VERTEX
  8
0
 10
7.58681
 20
4.87793
 30
0.0
 40
0
 41
0
  0
VERTEX
  8
0
 10
7.54303
 20
4.884
 30
0.0
 40
0
 41
0
  0
VERTEX
  8
0
 10
7.49826
 20
4.87901
 30
0.0
 40
0
 41
0
  0
VERTEX
  8
0
 10
7.45394
 20
4.86372
 30
0.0
 40
0
 41
0
  0
VERTEX
  8
0
 10
7.41129
 20
4.83897
 30
0.0
 40
0
 41
0
  0
VERTEX
  8
0
 10
7.37158
 20
4.80561
 30
0.0
 40
0
 41
0
  0
VERTEX
  8
0
 10
7.33615
 20
4.76443
 30
0.0
 40
0
 41
0
  0
VERTEX
  8
0
 10
7.30632
 20
4.71625
 30
0.0
 40
0
 41
0
  0
VERTEX
  8
0
 10
7.28336
 20
4.66189
 30
0.0
 40
0
 41
0
  0
VERTEX
  8
0
 10
7.26856
 20
4.60221
 30
0.0
 40
0
 41
0
  0
VERTEX
  8
0
 10
7.26324
 20
4.53797
 30
0.0
 40
0
 41
0
  0
VERTEX
  8
0
 10
7.26872
 20
4.47006
 30
0.0
 40
0
 41
0
  0
VERTEX
  8
0
 10
7.23426
 20
4.4356
 30
0.0
 40
0
 41
0
  0
VERTEX
  8
0
 10
6.99311
 20
4.60786
 30
0.0
 40
0
 41
0
  0
VERTEX
  8
0
 10
6.88417
 20
4.45481
 30
0.0
 40
0
 41
0
  0
VERTEX
  8
0
 10
6.75131
 20
4.36003
 30
0.0
 40
0
 41
0
  0
VERTEX
  8
0
 10
6.59293
 20
4.31168
 30
0.0
 40
0
 41
0
  0
VERTEX
  8
0
 10
6.4075
 20
4.29779
 30
0.0
 40
0
 41
0
  0
VERTEX
  8
0
 10
6.4075
 20
4.33225
 30
0.0
 40
0
 41
0
  0
VERTEX
  8
0
 10
7.06201
 20
4.95231
 30
0.0
 40
0
 41
0
  0
VERTEX
  8
0
 10
6.85531
 20
4.91786
 30
0.0
 40
0
 41
0
  0
VERTEX
  8
0
 10
6.93799
 20
5.01893
 30
0.0
 40
0
 41
0
  0
VERTEX
  8
0
 10
7.03185
 20
5.09326
 30
0.0
 40
0
 41
0
  0
VERTEX
  8
0
 10
7.13396
 20
5.14258
 30
0.0
 40
0
 41
0
  0
VERTEX
  8
0
 10
7.24121
 20
5.16857
 30
0.0
 40
0
 41
0
  0
VERTEX
  8
0
 10
7.35069
 20
5.17279
 30
0.0
 40
0
 41
0
  0
VERTEX
  8
0
 10
7.45931
 20
5.15707
 30
0.0
 40
0
 41
0
  0
VERTEX
  8
0
 10
7.56407
 20
5.12294
 30
0.0
 40
0
 41
0
  0
VERTEX
  8
0
 10
7.66206
 20
5.0721
 30
0.0
 40
0
 41
0
  0
VERTEX
  8
0
 10
7.75011
 20
5.00624
 30
0.0
 40
0
 41
0
  0
VERTEX
  8
0
 10
7.82531
 20
4.92708
 30
0.0
 40
0
 41
0
  0
VERTEX
  8
0
 10
7.88465
 20
4.83615
 30
0.0
 40
0
 41
0
  0
VERTEX
  8
0
 10
7.92513
 20
4.73525
 30
0.0
 40
0
 41
0
  0
VERTEX
  8
0
 10
7.94374
 20
4.62597
 30
0.0
 40
0
 41
0
  0
VERTEX
  8
0
 10
7.93744
 20
4.51004
 30
0.0
 40
0
 41
0
  0
VERTEX
  8
0
 10
7.90321
 20
4.38906
 30
0.0
 40
0
 41
0
  0
VERTEX
  8
0
 10
7.83811
 20
4.26471
 30
0.0
 40
0
 41
0
  0
VERTEX
  8
0
 10
7.7219
 20
4.13331
 30
0.0
 40
0
 41
0
  0
VERTEX
  8
0
 10
7.57824
 20
4.03201
 30
0.0
 40
0
 41
0
  0
VERTEX
  8
0
 10
7.48714
 20
3.98014
 30
0.0
 40
0
 41
0
  0
VERTEX
  8
0
 10
7.39649
 20
3.93647
 30
0.0
 40
0
 41
0
  0
VERTEX
  8
0
 10
7.30208
 20
3.90369
 30
0.0
 40
0
 41
0
  0
VERTEX
  8
0
 10
7.19982
 20
3.88439
 30
0.0
 40
0
 41
0
  0
SEQEND
 8
0
  0
POLYLINE
  8
0
 62
     0
 66
     1
 10
0
 20
0
 30
0.0
 40
0
 41
0
  0
VERTEX
  8
0
 10
1.48128
 20
4.78006
 30
0.0
 40
0
 41
0
  0
VERTEX
  8
0
 10
1.48128
 20
4.74561
 30
0.0
 40
0
 41
0
  0
VERTEX
  8
0
 10
1.61908
 20
4.71115
 30
0.0
 40
0
 41
0
  0
VERTEX
  8
0
 10
1.61908
 20
4.74561
 30
0.0
 40
0
 41
0
  0
VERTEX
  8
0
 10
1.48128
 20
4.78006
 30
0.0
 40
0
 41
0
  0
SEQEND
 8
0
  0
POLYLINE
  8
0
 62
     0
 66
     1
 10
0
 20
0
 30
0.0
 40
0
 41
0
  0
VERTEX
  8
0
 10
5.13286
 20
4.78006
 30
0.0
 40
0
 41
0
  0
VERTEX
  8
0
 10
5.11111
 20
4.71056
 30
0.0
 40
0
 41
0
  0
VERTEX
  8
0
 10
5.07547
 20
4.62294
 30
0.0
 40
0
 41
0
  0
VERTEX
  8
0
 10
5.03353
 20
4.52419
 30
0.0
 40
0
 41
0
  0
VERTEX
  8
0
 10
4.99317
 20
4.42128
 30
0.0
 40
0
 41
0
  0
VERTEX
  8
0
 10
4.96192
 20
4.32113
 30
0.0
 40
0
 41
0
  0
VERTEX
  8
0
 10
4.94764
 20
4.23074
 30
0.0
 40
0
 41
0
  0
VERTEX
  8
0
 10
4.95806
 20
4.15701
 30
0.0
 40
0
 41
0
  0
VERTEX
  8
0
 10
5.00082
 20
4.10688
 30
0.0
 40
0
 41
0
  0
VERTEX
  8
0
 10
5.06114
 20
4.08296
 30
0.0
 40
0
 41
0
  0
VERTEX
  8
0
 10
5.12093
 20
4.0771
 30
0.0
 40
0
 41
0
  0
VERTEX
  8
0
 10
5.17969
 20
4.08214
 30
0.0
 40
0
 41
0
  0
VERTEX
  8
0
 10
5.23703
 20
4.0911
 30
0.0
 40
0
 41
0
  0
VERTEX
  8
0
 10
5.29243
 20
4.09668
 30
0.0
 40
0
 41
0
  0
VERTEX
  8
0
 10
5.34554
 20
4.09179
 30
0.0
 40
0
 41
0
  0
VERTEX
  8
0
 10
5.39583
 20
4.06939
 30
0.0
 40
0
 41
0
  0
VERTEX
  8
0
 10
5.44293
 20
4.02219
 30
0.0
 40
0
 41
0
  0
VERTEX
  8
0
 10
5.28483
 20
3.94303
 30
0.0
 40
0
 41
0
  0
VERTEX
  8
0
 10
5.13043
 20
3.85394
 30
0.0
 40
0
 41
0
  0
VERTEX
  8
0
 10
4.97711
 20
3.76258
 30
0.0
 40
0
 41
0
  0
VERTEX
  8
0
 10
4.82215
 20
3.67665
 30
0.0
 40
0
 41
0
  0
VERTEX
  8
0
 10
4.66303
 20
3.60374
 30
0.0
 40
0
 41
0
  0
VERTEX
  8
0
 10
4.49701
 20
3.55154
 30
0.0
 40
0
 41
0
  0
VERTEX
  8
0
 10
4.3215
 20
3.52772
 30
0.0
 40
0
 41
0
  0
VERTEX
  8
0
 10
4.13385
 20
3.53993
 30
0.0
 40
0
 41
0
  0
VERTEX
  8
0
 10
4.27165
 20
3.91883
 30
0.0
 40
0
 41
0
  0
VERTEX
  8
0
 10
4.42546
 20
3.85596
 30
0.0
 40
0
 41
0
  0
VERTEX
  8
0
 10
4.55865
 20
3.81896
 30
0.0
 40
0
 41
0
  0
VERTEX
  8
0
 10
4.69476
 20
3.81472
 30
0.0
 40
0
 41
0
  0
VERTEX
  8
0
 10
4.85726
 20
3.84993
 30
0.0
 40
0
 41
0
  0
VERTEX
  8
0
 10
4.85726
 20
3.88439
 30
0.0
 40
0
 41
0
  0
VERTEX
  8
0
 10
4.73947
 20
3.93235
 30
0.0
 40
0
 41
0
  0
VERTEX
  8
0
 10
4.63032
 20
4.0064
 30
0.0
 40
0
 41
0
  0
VERTEX
  8
0
 10
4.53114
 20
4.10135
 30
0.0
 40
0
 41
0
  0
VERTEX
  8
0
 10
4.44353
 20
4.21213
 30
0.0
 40
0
 41
0
  0
VERTEX
  8
0
 10
4.36887
 20
4.33365
 30
0.0
 40
0
 41
0
  0
VERTEX
  8
0
 10
4.3086
 20
4.46072
 30
0.0
 40
0
 41
0
  0
VERTEX
  8
0
 10
4.26421
 20
4.58826
 30
0.0
 40
0
 41
0
  0
VERTEX
  8
0
 10
4.23719
 20
4.71115
 30
0.0
 40
0
 41
0
  0
VERTEX
  8
0
 10
5.13286
 20
4.78006
 30
0.0
 40
0
 41
0
  0
SEQEND
 8
0
  0
POLYLINE
  8
0
 62
     0
 66
     1
 10
0
 20
0
 30
0.0
 40
0
 41
0
  0
VERTEX
  8
0
 10
3.23817
 20
4.5734
 30
0.0
 40
0
 41
0
  0
VERTEX
  8
0
 10
3.41043
 20
4.4356
 30
0.0
 40
0
 41
0
  0
VERTEX
  8
0
 10
3.16928
 20
4.29779
 30
0.0
 40
0
 41
0
  0
VERTEX
  8
0
 10
3.13482
 20
4.16
 30
0.0
 40
0
 41
0
  0
VERTEX
  8
0
 10
3.06592
 20
4.16
 30
0.0
 40
0
 41
0
  0
VERTEX
  8
0
 10
3.03153
 20
4.26335
 30
0.0
 40
0
 41
0
  0
VERTEX
  8
0
 10
2.79036
 20
4.02219
 30
0.0
 40
0
 41
0
  0
VERTEX
  8
0
 10
2.85129
 20
4.03401
 30
0.0
 40
0
 41
0
  0
VERTEX
  8
0
 10
2.91917
 20
4.04796
 30
0.0
 40
0
 41
0
  0
VERTEX
  8
0
 10
2.99154
 20
4.06418
 30
0.0
 40
0
 41
0
  0
VERTEX
  8
0
 10
3.06597
 20
4.08296
 30
0.0
 40
0
 41
0
  0
VERTEX
  8
0
 10
3.14008
 20
4.10444
 30
0.0
 40
0
 41
0
  0
VERTEX
  8
0
 10
3.21137
 20
4.12885
 30
0.0
 40
0
 41
0
  0
VERTEX
  8
0
 10
3.27746
 20
4.15631
 30
0.0
 40
0
 41
0
  0
VERTEX
  8
0
 10
3.33594
 20
4.18701
 30
0.0
 40
0
 41
0
  0
VERTEX
  8
0
 10
3.38433
 20
4.22125
 30
0.0
 40
0
 41
0
  0
VERTEX
  8
0
 10
3.42025
 20
4.25906
 30
0.0
 40
0
 41
0
  0
VERTEX
  8
0
 10
3.44129
 20
4.30078
 30
0.0
 40
0
 41
0
  0
VERTEX
  8
0
 10
3.44499
 20
4.34646
 30
0.0
 40
0
 41
0
  0
VERTEX
  8
0
 10
3.42899
 20
4.39643
 30
0.0
 40
0
 41
0
  0
VERTEX
  8
0
 10
3.39079
 20
4.45074
 30
0.0
 40
0
 41
0
  0
VERTEX
  8
0
 10
3.32796
 20
4.50971
 30
0.0
 40
0
 41
0
  0
VERTEX
  8
0
 10
3.23817
 20
4.5734
 30
0.0
 40
0
 41
0
  0
SEQEND
 8
0
  0
POLYLINE
  8
0
 62
     0
 66
     1
 10
0
 20
0
 30
0.0
 40
0
 41
0
  0
VERTEX
  8
0
 10
0.620063
 20
4.22889
 30
0.0
 40
0
 41
0
  0
VERTEX
  8
0
 10
0.447808
 20
4.26335
 30
0.0
 40
0
 41
0
  0
VERTEX
  8
0
 10
0.447808
 20
4.02219
 30
0.0
 40
0
 41
0
  0
VERTEX
  8
0
 10
0.792318
 20
4.16
 30
0.0
 40
0
 41
0
  0
VERTEX
  8
0
 10
0.930122
 20
3.98774
 30
0.0
 40
0
 41
0
  0
VERTEX
  8
0
 10
0.861219
 20
3.91883
 30
0.0
 40
0
 41
0
  0
VERTEX
  8
0
 10
0.861219
 20
3.88439
 30
0.0
 40
0
 41
0
  0
VERTEX
  8
0
 10
1.10238
 20
3.78103
 30
0.0
 40
0
 41
0
  0
VERTEX
  8
0
 10
1.03082
 20
3.75265
 30
0.0
 40
0
 41
0
  0
VERTEX
  8
0
 10
0.954372
 20
3.73335
 30
0.0
 40
0
 41
0
  0
VERTEX
  8
0
 10
0.874675
 20
3.72287
 30
0.0
 40
0
 41
0
  0
VERTEX
  8
0
 10
0.793403
 20
3.72119
 30
0.0
 40
0
 41
0
  0
VERTEX
  8
0
 10
0.712131
 20
3.72808
 30
0.0
 40
0
 41
0
  0
VERTEX
  8
0
 10
0.632596
 20
3.74343
 30
0.0
 40
0
 41
0
  0
VERTEX
  8
0
 10
0.556424
 20
3.76714
 30
0.0
 40
0
 41
0
  0
VERTEX
  8
0
 10
0.485297
 20
3.79899
 30
0.0
 40
0
 41
0
  0
VERTEX
  8
0
 10
0.420844
 20
3.83886
 30
0.0
 40
0
 41
0
  0
VERTEX
  8
0
 10
0.364746
 20
3.88661
 30
0.0
 40
0
 41
0
  0
VERTEX
  8
0
 10
0.318631
 20
3.94206
 30
0.0
 40
0
 41
0
  0
VERTEX
  8
0
 10
0.284233
 20
4.0051
 30
0.0
 40
0
 41
0
  0
VERTEX
  8
0
 10
0.263129
 20
4.07557
 30
0.0
 40
0
 41
0
  0
VERTEX
  8
0
 10
0.256999
 20
4.15338
 30
0.0
 40
0
 41
0
  0
VERTEX
  8
0
 10
0.267524
 20
4.23828
 30
0.0
 40
0
 41
0
  0
VERTEX
  8
0
 10
0.296386
 20
4.33018
 30
0.0
 40
0
 41
0
  0
VERTEX
  8
0
 10
0.337999
 20
4.39947
 30
0.0
 40
0
 41
0
  0
VERTEX
  8
0
 10
0.391114
 20
4.44065
 30
0.0
 40
0
 41
0
  0
VERTEX
  8
0
 10
0.449761
 20
4.45606
 30
0.0
 40
0
 41
0
  0
VERTEX
  8
0
 10
0.508083
 20
4.44808
 30
0.0
 40
0
 41
0
  0
VERTEX
  8
0
 10
0.560167
 20
4.419
 30
0.0
 40
0
 41
0
  0
VERTEX
  8
0
 10
0.600151
 20
4.37125
 30
0.0
 40
0
 41
0
  0
VERTEX
  8
0
 10
0.622071
 20
4.30713
 30
0.0
 40
0
 41
0
  0
VERTEX
  8
0
 10
0.620063
 20
4.22889
 30
0.0
 40
0
 41
0
  0
SEQEND
 8
0
  0
POLYLINE
  8
0
 62
     0
 66
     1
 10
0
 20
0
 30
0.0
 70
     1
 40
0
 41
0
  0
VERTEX
  8
0
 10
0.48226
 20
4.02219
 30
0.0
 40
0
 41
0
  0
VERTEX
  8
0
 10
0.55306
 20
3.9279
 30
0.0
 40
0
 41
0
  0
VERTEX
  8
0
 10
0.639594
 20
3.87657
 30
0.0
 40
0
 41
0
  0
VERTEX
  8
0
 10
0.742188
 20
3.85499
 30
0.0
 40
0
 41
0
  0
VERTEX
  8
0
 10
0.861219
 20
3.84993
 30
0.0
 40
0
 41
0
  0
VERTEX
  8
0
 10
0.861219
 20
3.88439
 30
0.0
 40
0
 41
0
  0
VERTEX
  8
0
 10
0.48226
 20
4.02219
 30
0.0
 40
0
 41
0
  0
SEQEND
 8
0
  0
ENDSEC
  0
EOF
