999
############################################################
999
# SECTION HEADER                                           #
999
#                                                          #
999
#   gesetzte Variablen :                                   #
999
#                                                          #
999
#   $LIMMIN    links unten in mm                           #
999
#   $LIMMAX    rechts oben in mm                           #
999
#   $GRIDUNIT  Raster in mm                                #
999
#   $GRIDMODE  Raster ein                                  #
999
#   $SNAPUNIT  Fangraster in mm                            #
999
#   $SNAPMODE  Fangraster ein                              #
999
#   $ATTDIA    Dialoge für Attributeingabe ein             #
999
#   $ATTMODE   Sichtbarkeit der Attribute normal           #
999
#   $COORDS    Koordinatenanzeige ständig nachführen       #
999
#   $TEXTSTYLE aktueller Name des Textstils                #
999
#   $LTSCALE   Linientypfaktor                             #
999
############################################################
  0
SECTION
  2
HEADER
  9
$LIMMIN
 10
0.000
 20
0.000
  9
$LIMMAX
 10
429.000
 20
298.000
  9
$EXTMIN
 10
0.000
 20
0.000
  9
$EXTMAX
 10
429.000
 20
298.000
  9
$GRIDUNIT
 10
20.000
 20
20.000
  9
$GRIDMODE
 70
1
  9
$SNAPUNIT
 10
5.000
 20
5.000
  9
$SNAPMODE
 70
1
  9
$ATTDIA
 70
1
  9
$ATTMODE
 70
1
  9
$COORDS
 70
1
  9
$TEXTSTYLE
  7
NORMSCHRIFT
  9
$LTSCALE
 40
1.000
  0
ENDSEC
999
############################################################
999
# SECTION TABLES                                           #
999
#                                                          #
999
#   TABLE STYLE (3 Stück)                                  #
999
#                                                          #
999
#     NORMSCHRIFT                                          #
999
#     GREEK                                                #
999
#     CYRILLIC                                             #
999
#                                                          #
999
#   TABLE LTYPE (9 Stück)                                  #
999
#                                                          #
999
#     LTY0                                                 #
999
#     LTY1                                                 #
999
#     LTY2                                                 #
999
#     LTY3                                                 #
999
#     LTY4                                                 #
999
#     LTY5                                                 #
999
#     LTY6                                                 #
999
#     LTY7                                                 #
999
#     LTY8                                                 #
999
#                                                          #
999
#   TABLE LAYER (9 Stück)                                  #
999
#                                                          #
999
#     PEN1                                                 #
999
#     PEN2                                                 #
999
#     PEN3                                                 #
999
#     PEN4                                                 #
999
#     PEN5                                                 #
999
#     PEN6                                                 #
999
#     SF                                                   #
999
#     SYMBOL                                               #
999
#     GRAFIK                                               #
999
############################################################
  0
SECTION
  2
TABLES
  0
TABLE
  2
STYLE
 70
3
  0
STYLE
  2
NORMSCHRIFT
 70
0
 40
0.000
 41
1.000
 50
0.000
 71
0
 42
3.500
  3
norm
  4

  0
STYLE
  2
GREEK
 70
0
 40
0.000
 41
1.000
 50
0.000
 71
0
 42
3.500
  3
norm_gr
  4

  0
STYLE
  2
CYRILLIC
 70
0
 40
0.000
 41
1.000
 50
0.000
 71
0
 42
3.500
  3
norm_cy
  4

  0
ENDTAB
  0
TABLE
  2
LTYPE
 70
9
  0
LTYPE
  2
LTY0
 70
0
  3
unsichtbar
 72
65
 73
1
 40
2.100
 49
-2.100
  0
LTYPE
  2
LTY1
 70
0
  3
________________________________
 72
65
 73
0
 40
0.000
  0
LTYPE
  2
LTY2
 70
0
  3
. . . . . . . . . . . . . . . . .
 72
65
 73
2
 40
2.000
 49
0.500
 49
-1.500
  0
LTYPE
  2
LTY3
 70
0
  3
_ _ _ _ _ _ _ _ _ _ _ _ _ _ _ _ _
 72
65
 73
2
 40
3.000
 49
1.500
 49
-1.500
  0
LTYPE
  2
LTY4
 70
0
  3
__  __  __  __  __  __  __  __  __
 72
65
 73
2
 40
6.000
 49
3.000
 49
-3.000
  0
LTYPE
  2
LTY5
 70
0
  3
____  ____  ____  ____  ____  ____
 72
65
 73
2
 40
11.500
 49
8.000
 49
-3.500
  0
LTYPE
  2
LTY6
 70
0
  3
____  __  ____  __  ____  __  ____
 72
65
 73
4
 40
17.500
 49
11.500
 49
-2.000
 49
2.000
 49
-2.000
  0
LTYPE
  2
LTY7
 70
0
  3
___ . ___ . ___ . ___ . ___ . ___
 72
65
 73
4
 40
15.000
 49
11.000
 49
-2.000
 49
0.000
 49
-2.000
  0
LTYPE
  2
LTY8
 70
0
  3
___ _ _ ___ _ _ ___ _ _ ___ _ _ ___
 72
65
 73
6
 40
16.500
 49
7.500
 49
-2.000
 49
1.500
 49
-2.000
 49
1.500
 49
-2.000
  0
ENDTAB
  0
TABLE
  2
LAYER
 70
9
  0
LAYER
  2
PEN1
 70
0
 62
7
  6
LTY1
  0
LAYER
  2
PEN2
 70
0
 62
7
  6
LTY1
  0
LAYER
  2
PEN3
 70
0
 62
7
  6
LTY1
  0
LAYER
  2
PEN4
 70
0
 62
7
  6
LTY1
  0
LAYER
  2
PEN5
 70
0
 62
7
  6
LTY1
  0
LAYER
  2
PEN6
 70
0
 62
7
  6
LTY1
  0
LAYER
  2
SF
 70
0
 62
7
  6
LTY1
  0
LAYER
  2
SYMBOL
 70
0
 62
7
  6
LTY1
  0
LAYER
  2
GRAFIK
 70
0
 62
7
  6
LTY1
  0
ENDTAB
  0
ENDSEC
999
############################################################
999
# SECTION BLOCKS                                           #
999
############################################################
  0
SECTION
  2
BLOCKS
999
############################################################
999
# benutzte Symbole :                                       #
999
#                                                          #
999
# SF_DIN           SF_DIN                                  #
999
############################################################
999
############################################################
999
# BLOCK SF_DIN           SF_DIN                            #
999
############################################################
  0
BLOCK
  8
0
  2
SF_DIN
 10
0.000
 20
0.000
 70
2
  0
LINE
  8
PEN3
  6
LTY1
 10
0.000
 20
0.000
 11
0.000
 21
292.000
  0
LINE
  8
PEN3
  6
LTY1
 10
0.000
 20
292.000
 11
429.200
 21
292.000
  0
LINE
  8
PEN3
  6
LTY1
 10
429.200
 20
292.000
 11
429.200
 21
0.000
  0
LINE
  8
PEN3
  6
LTY1
 10
429.200
 20
0.000
 11
0.000
 21
0.000
  0
LINE
  8
PEN3
  6
LTY1
 10
429.200
 20
17.000
 11
0.000
 21
17.000
  0
LINE
  8
PEN1
  6
LTY1
 10
58.600
 20
17.000
 11
58.600
 21
0.000
  0
LINE
  8
PEN1
  6
LTY1
 10
96.700
 20
17.000
 11
96.700
 21
0.000
  0
LINE
  8
PEN1
  6
LTY1
 10
228.700
 20
17.000
 11
228.700
 21
0.000
  0
LINE
  8
PEN1
  6
LTY1
 10
305.300
 20
17.000
 11
305.300
 21
0.000
  0
LINE
  8
PEN1
  6
LTY1
 10
305.300
 20
8.500
 11
411.500
 21
8.500
  0
LINE
  8
PEN1
  6
LTY1
 10
411.500
 20
17.000
 11
411.500
 21
0.000
  0
LINE
  8
PEN1
  6
LTY1
 10
372.900
 20
8.500
 11
372.900
 21
0.000
  0
LINE
  8
PEN1
  6
LTY1
 10
398.500
 20
16.900
 11
398.500
 21
8.500
  0
LINE
  8
PEN2
  6
LTY1
 10
398.500
 20
12.700
 11
411.500
 21
12.700
  0
LINE
  8
PEN2
  6
LTY1
 10
429.200
 20
5.900
 11
411.500
 21
5.900
  0
LINE
  8
PEN2
  6
LTY1
 10
228.700
 20
4.300
 11
0.000
 21
4.300
  0
LINE
  8
PEN2
  6
LTY1
 10
0.000
 20
8.500
 11
96.700
 21
8.500
  0
LINE
  8
PEN2
  6
LTY1
 10
0.000
 20
12.700
 11
96.700
 21
12.700
  0
LINE
  8
PEN2
  6
LTY1
 10
3.000
 20
0.000
 11
3.000
 21
16.900
  0
LINE
  8
PEN2
  6
LTY1
 10
30.400
 20
0.000
 11
30.400
 21
16.900
  0
LINE
  8
PEN2
  6
LTY1
 10
46.000
 20
0.000
 11
46.000
 21
16.900
  0
LINE
  8
PEN2
  6
LTY1
 10
68.800
 20
0.000
 11
68.800
 21
16.900
  0
LINE
  8
PEN2
  6
LTY1
 10
139.900
 20
0.000
 11
139.900
 21
4.300
  0
LINE
  8
PEN2
  6
LTY1
 10
0.000
 20
287.000
 11
429.200
 21
287.000
  0
LINE
  8
PEN2
  6
LTY1
 10
45.500
 20
287.000
 11
45.500
 21
292.000
  0
TEXT
  8
PEN2
  7
NORMSCHRIFT
 10
19.875
 20
287.000
 72
1
 11
20.500
 21
287.000
 40
2.500
 51
0.000
 50
0.000
  1
1
  0
TEXT
  8
PEN2
  7
NORMSCHRIFT
 10
69.625
 20
287.000
 72
1
 11
70.500
 21
287.000
 40
2.500
 51
0.000
 50
0.000
  1
2
  0
TEXT
  8
PEN2
  7
NORMSCHRIFT
 10
119.625
 20
287.000
 72
1
 11
120.500
 21
287.000
 40
2.500
 51
0.000
 50
0.000
  1
3
  0
TEXT
  8
PEN2
  7
NORMSCHRIFT
 10
169.500
 20
287.000
 72
1
 11
170.500
 21
287.000
 40
2.500
 51
0.000
 50
0.000
  1
4
  0
TEXT
  8
PEN2
  7
NORMSCHRIFT
 10
219.625
 20
287.000
 72
1
 11
220.500
 21
287.000
 40
2.500
 51
0.000
 50
0.000
  1
5
  0
TEXT
  8
PEN2
  7
NORMSCHRIFT
 10
269.625
 20
287.000
 72
1
 11
270.500
 21
287.000
 40
2.500
 51
0.000
 50
0.000
  1
6
  0
TEXT
  8
PEN2
  7
NORMSCHRIFT
 10
319.625
 20
287.000
 72
1
 11
320.500
 21
287.000
 40
2.500
 51
0.000
 50
0.000
  1
7
  0
TEXT
  8
PEN2
  7
NORMSCHRIFT
 10
369.625
 20
287.000
 72
1
 11
370.500
 21
287.000
 40
2.500
 51
0.000
 50
0.000
  1
8
  0
TEXT
  8
PEN1
  7
NORMSCHRIFT
 10
414.575
 20
11.000
 72
1
 11
420.000
 21
11.000
 40
3.500
 51
0.000
 50
0.000
  1
Blatt
  0
TEXT
  8
PEN2
  7
NORMSCHRIFT
 10
423.575
 20
0.600
 72
2
 11
427.450
 21
0.600
 40
2.500
 51
0.000
 50
0.000
  1
Bl.
  0
TEXT
  8
PEN4
  7
NORMSCHRIFT
 10
141.100
 20
0.200
 72
0
 40
2.000
 51
0.000
 50
0.000
  1
Ersatz für:
  0
TEXT
  8
PEN4
  7
NORMSCHRIFT
 10
97.900
 20
0.200
 72
0
 40
2.000
 51
0.000
 50
0.000
  1
Ersatz durch:
  0
TEXT
  8
PEN4
  7
NORMSCHRIFT
 10
0.800
 20
4.400
 72
1
 11
1.500
 21
4.400
 40
2.000
 51
0.000
 50
0.000
  1
a
  0
TEXT
  8
PEN4
  7
NORMSCHRIFT
 10
0.800
 20
8.600
 72
1
 11
1.500
 21
8.600
 40
2.000
 51
0.000
 50
0.000
  1
b
  0
TEXT
  8
PEN4
  7
NORMSCHRIFT
 10
0.900
 20
12.800
 72
1
 11
1.500
 21
12.800
 40
2.000
 51
0.000
 50
0.000
  1
c
  0
TEXT
  8
PEN4
  7
NORMSCHRIFT
 10
4.200
 20
0.200
 72
0
 40
2.000
 51
0.000
 50
0.000
  1
Änderung
  0
TEXT
  8
PEN4
  7
NORMSCHRIFT
 10
31.600
 20
0.200
 72
0
 40
2.000
 51
0.000
 50
0.000
  1
Datum
  0
TEXT
  8
PEN4
  7
NORMSCHRIFT
 10
59.800
 20
12.800
 72
0
 40
2.000
 51
0.000
 50
0.000
  1
Datum
  0
TEXT
  8
PEN4
  7
NORMSCHRIFT
 10
59.800
 20
8.600
 72
0
 40
2.000
 51
0.000
 50
0.000
  1
Bearb.
  0
TEXT
  8
PEN4
  7
NORMSCHRIFT
 10
59.800
 20
4.400
 72
0
 40
2.000
 51
0.000
 50
0.000
  1
Gepr.
  0
TEXT
  8
PEN4
  7
NORMSCHRIFT
 10
59.800
 20
0.200
 72
0
 40
2.000
 51
0.000
 50
0.000
  1
Norm
  0
TEXT
  8
PEN4
  7
NORMSCHRIFT
 10
47.200
 20
0.200
 72
0
 40
2.000
 51
0.000
 50
0.000
  1
Name
  0
TEXT
  8
PEN4
  7
NORMSCHRIFT
 10
184.200
 20
0.200
 72
0
 40
2.000
 51
0.000
 50
0.000
  1
Ursprung:
  0
LINE
  8
PEN1
  6
LTY1
 10
182.900
 20
4.300
 11
182.900
 21
0.000
  0
LINE
  8
PEN1
  6
LTY1
 10
160.900
 20
17.000
 11
160.900
 21
4.300
  0
LINE
  8
PEN2
  6
LTY1
 10
95.500
 20
287.000
 11
95.500
 21
292.000
  0
LINE
  8
PEN2
  6
LTY1
 10
145.500
 20
287.000
 11
145.500
 21
292.000
  0
LINE
  8
PEN2
  6
LTY1
 10
195.500
 20
287.000
 11
195.500
 21
292.000
  0
LINE
  8
PEN2
  6
LTY1
 10
245.500
 20
287.000
 11
245.500
 21
292.000
  0
LINE
  8
PEN2
  6
LTY1
 10
295.500
 20
287.000
 11
295.500
 21
292.000
  0
LINE
  8
PEN2
  6
LTY1
 10
345.500
 20
287.000
 11
345.500
 21
292.000
  0
LINE
  8
PEN2
  6
LTY1
 10
395.500
 20
287.000
 11
395.500
 21
292.000
  0
TEXT
  8
PEN2
  7
NORMSCHRIFT
 10
414.625
 20
287.000
 72
1
 11
415.500
 21
287.000
 40
2.500
 51
0.000
 50
0.000
  1
9
  0
ATTDEF
  2
CODE_60
  3
1.Bezeichnungsebene
 70
8
  8
PEN1
  7
NORMSCHRIFT
 10
393.600
 20
0.700
 72
1
 11
393.600
 21
0.700
 40
3.500
 51
0.000
 50
0.000
  1

  0
ATTDEF
  2
CODE_61
  3
2.Bezeichnungsebene
 70
8
  8
PEN1
  7
NORMSCHRIFT
 10
393.600
 20
0.700
 72
1
 11
393.600
 21
0.700
 40
3.500
 51
0.000
 50
0.000
  1

  0
ATTDEF
  2
CODE_62
  3
Blattnummer
 70
8
  8
PEN1
  7
NORMSCHRIFT
 10
420.000
 20
5.500
 72
1
 11
420.000
 21
5.500
 40
3.500
 51
0.000
 50
0.000
  1

  0
ATTDEF
  2
CODE_1
  3
Anlagenkurzzeichen
 70
8
  8
PEN4
  7
NORMSCHRIFT
 10
400.700
 20
12.800
 72
0
 40
2.000
 51
0.000
 50
0.000
  1
=
  0
ATTDEF
  2
CODE_2
  3
Funktion
 70
8
  8
PEN4
  7
NORMSCHRIFT
 10
400.700
 20
12.800
 72
0
 40
2.000
 51
0.000
 50
0.000
  1

  0
ATTDEF
  2
CODE_3
  3
Einbauort
 70
8
  8
PEN4
  7
NORMSCHRIFT
 10
400.700
 20
8.600
 72
0
 40
2.000
 51
0.000
 50
0.000
  1
+
  0
ATTDEF
  2
CODE_76
  3
Planart
 70
8
  8
PEN2
  7
NORMSCHRIFT
 10
230.950
 20
12.000
 72
0
 40
2.500
 51
0.000
 50
0.000
  1
Stromlaufplan
  0
ATTDEF
  2
CODE_66
  3
Projektbenennung
 70
8
  8
PEN1
  7
NORMSCHRIFT
 10
325.325
 20
9.200
 72
1
 11
350.700
 21
9.200
 40
3.500
 51
0.000
 50
0.000
  1
Nord /LB Braunschweig
  0
ATTDEF
  2
CODE_65
  3
Blattbenennung 1
 70
8
  8
PEN1
  7
NORMSCHRIFT
 10
231.050
 20
7.000
 72
0
 40
3.500
 51
0.000
 50
0.000
  1

  0
ATTDEF
  2
CODE_51
  3
Blattbenennung 2
 70
8
  8
PEN1
  7
NORMSCHRIFT
 10
230.350
 20
1.000
 72
0
 40
3.500
 51
0.000
 50
0.000
  1

  0
ATTDEF
  2
CODE_67
  3
Auftraggeber
 70
8
  8
PEN1
  7
NORMSCHRIFT
 10
109.300
 20
7.200
 72
1
 11
128.900
 21
7.200
 40
3.500
 51
0.000
 50
0.000
  1
Gegenbauer Bosse
  0
ATTDEF
  2
CODE_71
  3
Maximale Blattanzahl
 70
8
  8
PEN2
  7
NORMSCHRIFT
 10
412.750
 20
0.600
 72
0
 40
2.500
 51
0.000
 50
0.000
  1
81
  0
ATTDEF
  2
CODE_51
  3
Bearbeiter
 70
8
  8
PEN4
  7
NORMSCHRIFT
 10
71.000
 20
8.500
 72
0
 40
2.000
 51
0.000
 50
0.000
  1

  0
ATTDEF
  2
CODE_72
  3
Erstellungs-Datum
 70
8
  8
PEN4
  7
NORMSCHRIFT
 10
71.000
 20
12.800
 72
0
 40
2.000
 51
0.000
 50
0.000
  1

  0
ATTDEF
  2
CODE_73
  3
Ursprung
 70
8
  8
PEN4
  7
NORMSCHRIFT
 10
198.100
 20
0.200
 72
0
 40
2.000
 51
0.000
 50
0.000
  1

  0
ATTDEF
  2
CODE_74
  3
Ersatz für
 70
8
  8
PEN4
  7
NORMSCHRIFT
 10
157.100
 20
0.200
 72
0
 40
2.000
 51
0.000
 50
0.000
  1

  0
ATTDEF
  2
CODE_75
  3
Ersatz durch
 70
8
  8
PEN4
  7
NORMSCHRIFT
 10
117.100
 20
0.200
 72
0
 40
2.000
 51
0.000
 50
0.000
  1

  0
ATTDEF
  2
CODE_51
  3
Änderung a
 70
8
  8
PEN4
  7
NORMSCHRIFT
 10
4.200
 20
4.400
 72
0
 40
2.000
 51
0.000
 50
0.000
  1
Revisionsplan
  0
ATTDEF
  2
CODE_51
  3
Datum Änderung a
 70
8
  8
PEN4
  7
NORMSCHRIFT
 10
35.200
 20
4.400
 72
2
 11
43.800
 21
4.400
 40
2.000
 51
0.000
 50
0.000
  1
19.11.02
  0
ATTDEF
  2
CODE_51
  3
Name für Änderung a
 70
8
  8
PEN4
  7
NORMSCHRIFT
 10
47.200
 20
4.400
 72
0
 40
2.000
 51
0.000
 50
0.000
  1
Abrams
  0
ATTDEF
  2
CODE_51
  3
Änderung b
 70
8
  8
PEN4
  7
NORMSCHRIFT
 10
4.200
 20
8.600
 72
0
 40
2.000
 51
0.000
 50
0.000
  1

  0
ATTDEF
  2
CODE_51
  3
Datum Änderung b
 70
8
  8
PEN4
  7
NORMSCHRIFT
 10
43.800
 20
8.600
 72
2
 11
43.800
 21
8.600
 40
2.000
 51
0.000
 50
0.000
  1

  0
ATTDEF
  2
CODE_51
  3
Name für Änderung b
 70
8
  8
PEN4
  7
NORMSCHRIFT
 10
47.200
 20
8.600
 72
0
 40
2.000
 51
0.000
 50
0.000
  1

  0
ATTDEF
  2
CODE_51
  3
Änderung c
 70
8
  8
PEN4
  7
NORMSCHRIFT
 10
4.200
 20
12.800
 72
0
 40
2.000
 51
0.000
 50
0.000
  1
Plotdatum
  0
ATTDEF
  2
CODE_76
  3
Datum Änderung c
 70
9
  8
PEN4
  7
NORMSCHRIFT
 10
0.000
 20
0.000
 72
0
 40
0.000
 51
0.000
 50
0.000
  1

  0
ATTDEF
  2
CODE_51
  3
Name für Änderung c
 70
8
  8
PEN4
  7
NORMSCHRIFT
 10
47.200
 20
12.800
 72
0
 40
2.000
 51
0.000
 50
0.000
  1

  0
ATTDEF
  2
CODE_77
  3
Sondervermerke
 70
8
  8
PEN2
  7
NORMSCHRIFT
 10
324.125
 20
2.000
 72
1
 11
338.000
 21
2.000
 40
2.500
 51
0.000
 50
0.000
  1
Lüftung Flachbau #Anl. 3.2 und 3.8
  0
ATTDEF
  2
CODE_2401
  3
Plotdatum autom.
 70
8
  8
PEN4
  7
NORMSCHRIFT
 10
43.800
 20
12.800
 72
2
 11
43.800
 21
12.800
 40
2.000
 51
0.000
 50
0.000
  1

  0
ATTDEF
  2
CODE_2000
  3
Code-Nr. Ebene 1
 70
9
  8
PEN4
  7
NORMSCHRIFT
 10
0.000
 20
0.000
 72
0
 40
0.000
 51
0.000
 50
0.000
  1
60
  0
ATTDEF
  2
CODE_2001
  3
Code-Nr. Ebene 2
 70
9
  8
PEN4
  7
NORMSCHRIFT
 10
0.000
 20
0.000
 72
0
 40
0.000
 51
0.000
 50
0.000
  1
61
  0
ATTDEF
  2
CODE_2002
  3
Code-Nr. Ebene 3
 70
9
  8
PEN4
  7
NORMSCHRIFT
 10
0.000
 20
0.000
 72
0
 40
0.000
 51
0.000
 50
0.000
  1
62
  0
ATTDEF
  2
CODE_2005
  3
1Ebene aktuell.Blatt
 70
9
  8
PEN4
  7
NORMSCHRIFT
 10
0.000
 20
0.000
 72
0
 40
0.000
 51
0.000
 50
0.000
  1
1.Bezeichnungsebene.
  0
ATTDEF
  2
CODE_2006
  3
2Ebene aktuell.Blatt
 70
9
  8
PEN4
  7
NORMSCHRIFT
 10
0.000
 20
0.000
 72
0
 40
0.000
 51
0.000
 50
0.000
  1
2.Bezeichnungsebene.
  0
ATTDEF
  2
CODE_2007
  3
3Ebene aktuell.Blatt
 70
9
  8
PEN4
  7
NORMSCHRIFT
 10
0.000
 20
0.000
 72
0
 40
0.000
 51
0.000
 50
0.000
  1
Blattnummer.........
  0
ATTDEF
  2
CODE_2010
  3
durchlaufend
 70
9
  8
PEN4
  7
NORMSCHRIFT
 10
0.000
 20
0.000
 72
0
 40
0.000
 51
0.000
 50
0.000
  1
N
  0
ATTDEF
  2
CODE_2011
  3
Anzahl Strompfade
 70
9
  8
PEN4
  7
NORMSCHRIFT
 10
0.000
 20
0.000
 72
0
 40
0.000
 51
0.000
 50
0.000
  1
9
  0
ATTDEF
  2
CODE_2012
  3
horizontal
 70
9
  8
PEN4
  7
NORMSCHRIFT
 10
0.000
 20
0.000
 72
0
 40
0.000
 51
0.000
 50
0.000
  1
J
  0
ATTDEF
  2
CODE_2013
  3
x 1. Strompfad
 70
9
  8
PEN4
  7
NORMSCHRIFT
 10
0.000
 20
0.000
 72
0
 40
0.000
 51
0.000
 50
0.000
  1
-4.500
  0
ATTDEF
  2
CODE_2014
  3
Pfadbreite
 70
9
  8
PEN4
  7
NORMSCHRIFT
 10
0.000
 20
0.000
 72
0
 40
0.000
 51
0.000
 50
0.000
  1
50.000
  0
ATTDEF
  2
CODE_2015
  3
Name erster Pfad
 70
9
  8
PEN4
  7
NORMSCHRIFT
 10
0.000
 20
0.000
 72
0
 40
0.000
 51
0.000
 50
0.000
  1
1
  0
ATTDEF
  2
CODE_2016
  3
vertikal
 70
9
  8
PEN4
  7
NORMSCHRIFT
 10
0.000
 20
0.000
 72
0
 40
0.000
 51
0.000
 50
0.000
  1
N
  0
ATTDEF
  2
CODE_91
  3
Firmenlogo
 70
9
  8
PEN4
  7
NORMSCHRIFT
 10
0.000
 20
0.000
 72
0
 40
0.000
 51
0.000
 50
0.000
  1

  0
ATTDEF
  2
CODE_2130
  3
Geometrie Breite
 70
9
  8
PEN4
  7
NORMSCHRIFT
 10
0.000
 20
0.000
 72
0
 40
0.000
 51
0.000
 50
0.000
  1
429.00
  0
ATTDEF
  2
CODE_2131
  3
Geometrie Höhe
 70
9
  8
PEN4
  7
NORMSCHRIFT
 10
0.000
 20
0.000
 72
0
 40
0.000
 51
0.000
 50
0.000
  1
298.00
  0
ATTDEF
  2
CODE_2132
  3
Grundraster
 70
9
  8
PEN4
  7
NORMSCHRIFT
 10
0.000
 20
0.000
 72
0
 40
0.000
 51
0.000
 50
0.000
  1
20
  0
ATTDEF
  2
CODE_2133
  3
Grobraster
 70
9
  8
PEN4
  7
NORMSCHRIFT
 10
0.000
 20
0.000
 72
0
 40
0.000
 51
0.000
 50
0.000
  1
100
  0
ATTDEF
  2
CODE_2134
  3
Feinraster
 70
9
  8
PEN4
  7
NORMSCHRIFT
 10
0.000
 20
0.000
 72
0
 40
0.000
 51
0.000
 50
0.000
  1
5
  0
ENDBLK
  0
ENDSEC
999
############################################################
999
# SECTION ENTITIES                                         #
999
############################################################
  0
SECTION
  2
ENTITIES
  0
INSERT
  8
SF
  2
SF_DIN
 10
0.000
 20
0.000
 41
1.000
 42
1.000
 50
0.000
 66
1
  0
ATTRIB
  2
CODE_60
 70
9
  8
PEN1
  7
NORMSCHRIFT
 10
384.850
 20
0.700
 72
1
 11
394.825
 21
0.700
 40
3.500
 51
0.000
 50
0.000
  1
13195-10
  0
ATTRIB
  2
CODE_61
 70
9
  8
PEN1
  7
NORMSCHRIFT
 10
390.800
 20
0.700
 72
1
 11
394.825
 21
0.700
 40
3.500
 51
0.000
 50
0.000
  1
SP
  0
ATTRIB
  2
CODE_62
 70
8
  8
PEN1
  7
NORMSCHRIFT
 10
418.600
 20
5.500
 72
1
 11
420.000
 21
5.500
 40
3.500
 51
0.000
 50
0.000
  1
4
  0
ATTRIB
  2
CODE_1
 70
9
  8
PEN4
  7
NORMSCHRIFT
 10
400.700
 20
12.800
 72
0
 40
2.000
 51
0.000
 50
0.000
  1
=
  0
ATTRIB
  2
CODE_2
 70
9
  8
PEN4
  7
NORMSCHRIFT
 10
400.700
 20
12.800
 72
0
 40
2.000
 51
0.000
 50
0.000
  1

  0
ATTRIB
  2
CODE_3
 70
8
  8
PEN4
  7
NORMSCHRIFT
 10
400.700
 20
8.600
 72
0
 40
2.000
 51
0.000
 50
0.000
  1
+
  0
ATTRIB
  2
CODE_76
 70
8
  8
PEN2
  7
NORMSCHRIFT
 10
230.950
 20
12.000
 72
0
 40
2.500
 51
0.000
 50
0.000
  1
Stromlaufplan
  0
ATTRIB
  2
CODE_66
 70
8
  8
PEN1
  7
NORMSCHRIFT
 10
325.325
 20
9.200
 72
1
 11
350.700
 21
9.200
 40
3.500
 51
0.000
 50
0.000
  1
Nord /LB Braunschweig
  0
ATTRIB
  2
CODE_65
 70
8
  8
PEN1
  7
NORMSCHRIFT
 10
231.050
 20
7.000
 72
0
 40
3.500
 51
0.000
 50
0.000
  1
Reserveseite 4-5
  0
ATTRIB
  2
CODE_51
 70
8
  8
PEN1
  7
NORMSCHRIFT
 10
230.350
 20
1.000
 72
0
 40
3.500
 51
0.000
 50
0.000
  1

  0
ATTRIB
  2
CODE_67
 70
8
  8
PEN1
  7
NORMSCHRIFT
 10
109.300
 20
7.200
 72
1
 11
128.900
 21
7.200
 40
3.500
 51
0.000
 50
0.000
  1
Gegenbauer Bosse
  0
ATTRIB
  2
CODE_71
 70
8
  8
PEN2
  7
NORMSCHRIFT
 10
412.750
 20
0.600
 72
0
 40
2.500
 51
0.000
 50
0.000
  1
81
  0
ATTRIB
  2
CODE_51
 70
8
  8
PEN4
  7
NORMSCHRIFT
 10
71.000
 20
8.500
 72
0
 40
2.000
 51
0.000
 50
0.000
  1

  0
ATTRIB
  2
CODE_72
 70
8
  8
PEN4
  7
NORMSCHRIFT
 10
71.000
 20
12.800
 72
0
 40
2.000
 51
0.000
 50
0.000
  1
24.09.2002
  0
ATTRIB
  2
CODE_73
 70
8
  8
PEN4
  7
NORMSCHRIFT
 10
198.100
 20
0.200
 72
0
 40
2.000
 51
0.000
 50
0.000
  1

  0
ATTRIB
  2
CODE_74
 70
8
  8
PEN4
  7
NORMSCHRIFT
 10
157.100
 20
0.200
 72
0
 40
2.000
 51
0.000
 50
0.000
  1

  0
ATTRIB
  2
CODE_75
 70
8
  8
PEN4
  7
NORMSCHRIFT
 10
117.100
 20
0.200
 72
0
 40
2.000
 51
0.000
 50
0.000
  1

  0
ATTRIB
  2
CODE_51
 70
8
  8
PEN4
  7
NORMSCHRIFT
 10
4.200
 20
4.400
 72
0
 40
2.000
 51
0.000
 50
0.000
  1
Revisionsplan
  0
ATTRIB
  2
CODE_51
 70
8
  8
PEN4
  7
NORMSCHRIFT
 10
35.200
 20
4.400
 72
2
 11
43.800
 21
4.400
 40
2.000
 51
0.000
 50
0.000
  1
19.11.02
  0
ATTRIB
  2
CODE_51
 70
8
  8
PEN4
  7
NORMSCHRIFT
 10
47.200
 20
4.400
 72
0
 40
2.000
 51
0.000
 50
0.000
  1
Abrams
  0
ATTRIB
  2
CODE_51
 70
8
  8
PEN4
  7
NORMSCHRIFT
 10
4.200
 20
8.600
 72
0
 40
2.000
 51
0.000
 50
0.000
  1

  0
ATTRIB
  2
CODE_51
 70
8
  8
PEN4
  7
NORMSCHRIFT
 10
43.800
 20
8.600
 72
2
 11
43.800
 21
8.600
 40
2.000
 51
0.000
 50
0.000
  1

  0
ATTRIB
  2
CODE_51
 70
8
  8
PEN4
  7
NORMSCHRIFT
 10
47.200
 20
8.600
 72
0
 40
2.000
 51
0.000
 50
0.000
  1

  0
ATTRIB
  2
CODE_51
 70
8
  8
PEN4
  7
NORMSCHRIFT
 10
4.200
 20
12.800
 72
0
 40
2.000
 51
0.000
 50
0.000
  1
Plotdatum
  0
ATTRIB
  2
CODE_76
 70
9
  8
PEN4
  7
NORMSCHRIFT
 10
0.000
 20
0.000
 72
0
 40
0.000
 51
0.000
 50
0.000
  1

  0
ATTRIB
  2
CODE_51
 70
8
  8
PEN4
  7
NORMSCHRIFT
 10
47.200
 20
12.800
 72
0
 40
2.000
 51
0.000
 50
0.000
  1

  0
ATTRIB
  2
CODE_77
 70
9
  8
PEN2
  7
NORMSCHRIFT
 10
324.125
 20
2.000
 72
1
 11
338.000
 21
2.000
 40
2.500
 51
0.000
 50
0.000
  1
Lüftung Flachbau #Anl. 3.2 und 3.8
  0
ATTRIB
  2
CODE_2401
 70
8
  8
PEN4
  7
NORMSCHRIFT
 10
32.000
 20
12.800
 72
2
 11
43.800
 21
12.800
 40
2.000
 51
0.000
 50
0.000
  1
12.12.2005
  0
ATTRIB
  2
CODE_2000
 70
9
  8
PEN4
  7
NORMSCHRIFT
 10
0.000
 20
0.000
 72
0
 40
0.000
 51
0.000
 50
0.000
  1
60
  0
ATTRIB
  2
CODE_2001
 70
9
  8
PEN4
  7
NORMSCHRIFT
 10
0.000
 20
0.000
 72
0
 40
0.000
 51
0.000
 50
0.000
  1
61
  0
ATTRIB
  2
CODE_2002
 70
9
  8
PEN4
  7
NORMSCHRIFT
 10
0.000
 20
0.000
 72
0
 40
0.000
 51
0.000
 50
0.000
  1
62
  0
ATTRIB
  2
CODE_2005
 70
9
  8
PEN4
  7
NORMSCHRIFT
 10
0.000
 20
0.000
 72
0
 40
0.000
 51
0.000
 50
0.000
  1
1.Bezeichnungsebene.
  0
ATTRIB
  2
CODE_2006
 70
9
  8
PEN4
  7
NORMSCHRIFT
 10
0.000
 20
0.000
 72
0
 40
0.000
 51
0.000
 50
0.000
  1
2.Bezeichnungsebene.
  0
ATTRIB
  2
CODE_2007
 70
9
  8
PEN4
  7
NORMSCHRIFT
 10
0.000
 20
0.000
 72
0
 40
0.000
 51
0.000
 50
0.000
  1
Blattnummer.........
  0
ATTRIB
  2
CODE_2010
 70
9
  8
PEN4
  7
NORMSCHRIFT
 10
0.000
 20
0.000
 72
0
 40
0.000
 51
0.000
 50
0.000
  1
N
  0
ATTRIB
  2
CODE_2011
 70
9
  8
PEN4
  7
NORMSCHRIFT
 10
0.000
 20
0.000
 72
0
 40
0.000
 51
0.000
 50
0.000
  1
9
  0
ATTRIB
  2
CODE_2012
 70
9
  8
PEN4
  7
NORMSCHRIFT
 10
0.000
 20
0.000
 72
0
 40
0.000
 51
0.000
 50
0.000
  1
J
  0
ATTRIB
  2
CODE_2013
 70
9
  8
PEN4
  7
NORMSCHRIFT
 10
0.000
 20
0.000
 72
0
 40
0.000
 51
0.000
 50
0.000
  1
-4.500
  0
ATTRIB
  2
CODE_2014
 70
9
  8
PEN4
  7
NORMSCHRIFT
 10
0.000
 20
0.000
 72
0
 40
0.000
 51
0.000
 50
0.000
  1
50.000
  0
ATTRIB
  2
CODE_2015
 70
9
  8
PEN4
  7
NORMSCHRIFT
 10
0.000
 20
0.000
 72
0
 40
0.000
 51
0.000
 50
0.000
  1
1
  0
ATTRIB
  2
CODE_2016
 70
9
  8
PEN4
  7
NORMSCHRIFT
 10
0.000
 20
0.000
 72
0
 40
0.000
 51
0.000
 50
0.000
  1
N
  0
ATTRIB
  2
CODE_91
 70
9
  8
PEN4
  7
NORMSCHRIFT
 10
0.000
 20
0.000
 72
0
 40
0.000
 51
0.000
 50
0.000
  1

  0
ATTRIB
  2
CODE_2130
 70
9
  8
PEN4
  7
NORMSCHRIFT
 10
0.000
 20
0.000
 72
0
 40
0.000
 51
0.000
 50
0.000
  1
429.00
  0
ATTRIB
  2
CODE_2131
 70
9
  8
PEN4
  7
NORMSCHRIFT
 10
0.000
 20
0.000
 72
0
 40
0.000
 51
0.000
 50
0.000
  1
298.00
  0
ATTRIB
  2
CODE_2132
 70
9
  8
PEN4
  7
NORMSCHRIFT
 10
0.000
 20
0.000
 72
0
 40
0.000
 51
0.000
 50
0.000
  1
20
  0
ATTRIB
  2
CODE_2133
 70
9
  8
PEN4
  7
NORMSCHRIFT
 10
0.000
 20
0.000
 72
0
 40
0.000
 51
0.000
 50
0.000
  1
100
  0
ATTRIB
  2
CODE_2134
 70
9
  8
PEN4
  7
NORMSCHRIFT
 10
0.000
 20
0.000
 72
0
 40
0.000
 51
0.000
 50
0.000
  1
5
  0
SEQEND
  0
TEXT
  8
PEN2
  7
NORMSCHRIFT
 10
324.125
 20
4.500
 72
1
 11
338.000
 21
4.500
 40
2.500
 51
0.000
 50
0.000
  1
Lüftung Flachbau 
  0
TEXT
  8
PEN2
  7
NORMSCHRIFT
 10
325.825
 20
-0.500
 72
1
 11
338.000
 21
-0.500
 40
2.500
 51
0.000
 50
0.000
  1
Anl. 3.2 und 3.8
  0
TEXT
  8
PEN1
  7
NORMSCHRIFT
 10
380.825
 20
0.700
 72
1
 11
393.600
 21
0.700
 40
3.500
 51
0.000
 50
0.000
  1
13195-10-SP
  0
TEXT
  8
PEN4
  7
NORMSCHRIFT
 10
400.700
 20
12.800
 72
0
 40
2.000
 51
0.000
 50
0.000
  1
=
  0
TEXT
  8
PEN3
  7
NORMSCHRIFT
 10
360.500
 20
25.000
 72
0
 40
5.000
 51
0.000
 50
0.000
  1
Reserveseite 4-5
  0
ENDSEC
999
############################################################
999
# EOF                                                      #
999
############################################################
  0
EOF
